Song name
# A B C D E F G H I J K L M N O P Q R S T U V W X Y Z

Mgmt - Of Moons Birds And Monsters tab

This is my first tab. Basically tabbed exactly what you hear in the song. 
Pretty straight forward a lot of it is repeated.
Open for suggestions!

Of Moons, Birds and Monsters solo

2:33                         2:47
e|-------------------------------------------12-12-11-9-7-----------------|
B|-------------------------------9-9-7-9-7---------------9--9-------------|
G|-----------------------------------------9------------------------------|
D|------------------------------------------------------------------------|
A|---11-12-11----------9-7-7-6--------------------------------------------|
E|------------------------------------------------------------------------|

e|-------------------12-12-11-9-7---------------------12-12-11-9-7--------|
B|---9-9-7-9-7--------------------9--9-----9-9-7-9-7-------------9-10-9---|
G|-------------9------------------------------------9---------------------|
D|------------------------------------------------------------------------|
A|------------------------------------------------------------------------|
E|------------------------------------------------------------------------|

e|------------------12-12-11-9-7-------------------12-12-11-9-7-----------|
B|---9-9-7-9-7------------------9-9-10-9-----12-14-----------9-9----------|
G|-------------9----------------------------------------------------------|
D|------------------------------------------------------------------------|
A|------------------------------------------------------------------------|
E|------------------------------------------------------------------------|

3:36
e|--------------------12-12-11-9-7-------------------------9-11-----------|
B|---9-9-7-9-7---------------------9--9---9-9-7-9-7-----------9-9-9-9-10-9|
G|-------------9-----------------------------------9----------------------|
D|------------------------------------------------------------------------|
A|------------------------------------------------------------------------|
E|------------------------------------------------------------------------|

3:55                        4:05
e|--------------------------9------12-12-11-9-7---------------------------|
B|--12-14--16---14-9-9-----------------------------9-9--------------------|
G|------------------------------------------------------------------------|
D|------------------------------------------------------------------------|
A|------------------------------------------------------------------------|
E|------------------------------------------------------------------------|

4:16
e|-------------12-12-11-9-7------------------9-9-11-------12-12-11-9-7----|
B|--9-7-9-------------------9-10-9--9-7-9-----------10-9--------------9---| 
G|--------9-------------------------------9-------------------------------|
D|------------------------------------------------------------------------|
A|------------------------------------------------------------------------|
E|------------------------------------------------------------------------|

--Maria--
Tap to rate this tab
# A B C D E F G H I J K L M N O P Q R S T U V W X Y Z