Song name
# A B C D E F G H I J K L M N O P Q R S T U V W X Y Z

Mgmt - Alien Days tab

ALIEN DAYS SOLO TAB

CAPO 1


Pongo capo 1 por que anteriormente estaba tocando esta canción y fue entonces cuando se
me ocurrio sacar esta parte de la canción, solo que despúes me di cuenta que aun tenia
el capo puesto. No es muy buena, pero si tiene la tonada, cualquier corrección o 
comentario  sera bienvenido:) aclaro que es mi primera tablatura

-----------------------------|
--7/6--7---5----4/3--4---2---|
---------7---4---------4---1-|
-----------------------------|
-----------------------------|
-----------------------------|




--------------------0----------------------------------------------1--|
--------0-2--3/2/3-------0--6--3--5--2--3--0-----------------2/1/2----|
----3-2---------------------------------------2--1-----2/1/2----------|
----------------------------------------------------------------------|
----------------------------------------------------------------------|
----------------------------------------------------------------------|



-----------------------------|
---0-9--7--------------------|
----------9-8--9/8--9---7----|
----------------------9---6--|
-----------------------------|
-----------------------------|


aaub
Tap to rate this tab
# A B C D E F G H I J K L M N O P Q R S T U V W X Y Z