Song name
# A B C D E F G H I J K L M N O P Q R S T U V W X Y Z

Mi Numero Perfecto - Solo Hace Falta Una Bala En Tu Cabeza tab

-------------------------------------------------------------------------------
			  SOLO HACE FALTA UNA BALA EN TU CABEZA - MI NUMERO PERFECTO
-------------------------------------------------------------------------------
Tabbed by:WIRITOSK8
Tuning:[Eadgbe]

[[intro]]
e|----------------------------------------------|
B|----------------------------------------------|
G|--777-55555------55555------11122------22233--|
D|--777-33333--222-55555--333-xxxxx--333-xxxxx--|
A|--555--------222-33333--333-22233--333-33355--|
E|------------------------111--------111--------|

[[piano]]
e|--5-3---------------|
B|--------5-----------|
G|------7---5-7-9-10--|
D|--------------------|
A|--------------------|
E|--------------------|

[[guitar]]
e|----------------------------8-7-5--|
B|--------------------------5--------|
G|------54------4h5----5-7-----------|
D|----5---5---5------5---------------|
A|--0-------0------------------------|
E|-----------------------------------|

Tap to rate this tab
# A B C D E F G H I J K L M N O P Q R S T U V W X Y Z