Mia Rose - Just Us tab

------------------------------------------------------------------------
			   Just Us - Mia Rose
------------------------------------------------------------------------
This is my first tab! Have been looking for the tab for ages but couldn't find it 
anywher.So after watching Mia's Video,Im sure this is pretty accuarte!

Tabbed by: xPaigeMckx
Email:

Tuning: Standard

Intro:

e|-0---0---0---0--|
B|-0---0---0---0--|
G|-4---4---4---4--|
D|-2---2---2---2--|
A|-4---0---4---0--|
E|-0---0---0---0--|

Verses 1 & 2:

e|-0---0---0---0---0---0---0---0|
B|-0---0---0---0---0---0---0---0|
G|-4---4---4---4---4---4---4---4|
D|-2---2---2---2---2---2---2---2|
A|-4---0---4---0---4---0---4---0|
E|-0---0---0---0---0---0---0---0|



Chorus:

e|-0-----------------------0---0|
B|-0-----------------------0---0|
G|-4-----------------------4---4|
D|-0-----------------------2---2|
A|-0-----------------------4---0|
E|-2-----------------------0---0|


Thats it....Quite Simple Really.

Enjoy!!
Tap to rate this tab
 
# A B C D E F G H I J K L M N O P Q R S T U V W X Y Z