Song name
# A B C D E F G H I J K L M N O P Q R S T U V W X Y Z

Mia - Paper Planes tab

Help us improve GuitareTab! Take a short survey!
M.I.A - Paper Planes

Intro
e|-----------------------------------------------------------------|
B|-----------------------------------------------------------------|
G|-7-7---7-7-7---7-7-7---7-7-7-------------------------------------|
D|-7-7---7-7-7---7-7-7---7-7-7-7-7-5-5-5-5-5-5-5-5-5-5-5-5-5-5-5-5-|
A|-5-5---5-5-5---5-5-5---5-5-5-7-7-5-5-5-5-5-5-5-5-5-5-5-5-5-5-5-5-|
E|-----5-------5-------5-------5-5-3-3-3-3-3-3-3-3-3-3-3-3-3-3-3-3-|

Verse
e|-----------------------------------------------------------------|
B|-----------------------------------------------------------------|
G|-7-7-7-7-7-7-7-7-7-7-7-7-7-7-------------------------------------|
D|-7-7-7-7-7-7-7-7-7-7-7-7-7-7-7-7-5-5-5-5-5-5-5-5-5-5-5-5-5-5-5-5-| x4
A|-5-5-5-5-5-5-5-5-5-5-5-5-5-5-7-7-5-5-5-5-5-5-5-5-5-5-5-5-5-5-5-5-|
E|-----------------------------5-5-3-3-3-3-3-3-3-3-3-3-3-3-3-3-3-3-|

Chorus
all i wanna do is..(#1)
e|---------------------------------|
B|---------------------------------|
G|-7-7-7-7-7-7-7-7-7-7-7-7-7-7-----|
D|-7-7-7-7-7-7-7-7-7-7-7-7-7-7-7-7-|
A|-5-5-5-5-5-5-5-5-5-5-5-5-5-5-7-7-|
E|-----------------------------5-5-|

all i wanna do is..(#2)              x2
e|---------------------------------|
B|---------------------------------|
G|---------------------------------|
D|-5-5-5-5-5-5-5-5-5-5-5-5-5-5-5-5-| 
A|-5-5-5-5-5-5-5-5-5-5-5-5-5-5-5-5-|
E|-3-3-3-3-3-3-3-3-3-3-3-3-3-3-3-3-|

Outro
e|-------------------------------------|
B|-------------------------------------|
G|-7777777777777777--------------------|
D|-----------------777-----------------|
A|--------------------5555555555555555-|
E|-------------------------------------|

Song Order:
-----------
Intro
Verse
Chorus
Verse
Chorus
Verse
Chorus
Chorus
Outro
Related for Paper Planes tab