Song name
# A B C D E F G H I J K L M N O P Q R S T U V W X Y Z

Mia - Crafty tab

Whoooo! Go C Us at The Sad Cafe At Some Point! We Are Good!- Black Rose For Acoustic or 
Bottom For Wahs

Intro
e|-----------------------------------------------------------|
B|-----------------------------------------------------------|
D|---0-----0-----------0-----0------------0-----0-----0--2---|
G|--4-4---4-4---4--4--4-4---4-4---4--4---4-4---4-4---4--4----|
A|-2---2-2---2-3--3--2---2-2---2-3--0---2---2-2---2-3--0-----|
E|0-----0-----0--0--0-----0-----0--0---0-----0---------------|

Verse& Chorus
e|----------------------------------------|
B|----------------------------------------|
D|-0-0-000000-0-0-000000-0-0-000000-0-0-0-|
G|-4-4-444444-5-5-555555-7-7-777777-3-4-5-|
A|-2-2-222222-3-3-333333-5-5-555555-1-2-3-|
E|-0-0-000000-0-0-000000-0-0-000000-0-0-0-|

Solo
e|-------------------------------|Repete Again One String Higher
B|-------------------------------|
D|------------------------7------|
G|-9v\7v-7v\5v-5-7-9-7-5-0-0\7---|
A|-------------------------------|
E|-------------------------------|

Play Itro Again

Now You Playin Our Simplest Song Yay!
E-Mail- Jsj65@aim.com
Tap to rate this tab
# A B C D E F G H I J K L M N O P Q R S T U V W X Y Z