Song name
# A B C D E F G H I J K L M N O P Q R S T U V W X Y Z

Miah Capra - The Cause tab

-------------------------------------------------------------------------------
                             THE CAUSE  Miah Capra
-------------------------------------------------------------------------------
Tabbed by: Miah Capra   
E-mail: miahcapra@yahoo.com

Tuning: EADGBE

e|----------------------------------------------------------1----------------|
B|----------1-----------0-----------1-----------1---------3------------------|
G|--------2---2-----------0-----------2-----------0-----2--------------------|
D|------2-------2-----2-----2-----3-----3-----2-----2------------------------|
A|----0-------------2-----------3-----------3---------0----------------------|
E|----------------0-----------1-----------3----------------------------------|
Tap to rate this tab
# A B C D E F G H I J K L M N O P Q R S T U V W X Y Z