Guitaretab - guitar tabs
Song name
# A B C D E F G H I J K L M N O P Q R S T U V W X Y Z

Micah Bentley - My Heart Beats Fast tab

Highlighted       Show chord diagrams
Micah Bentley- My Heart Beats Fast

*CAPO on 1st fret*

Intro/1st verse
-2---3-------3----------7--------5-------5--------------|
-3---3---3---3- --------5--------3-------3--------------|
---------0--------0----------0---------0----------------|
----------------2---2------0-----0---5-----5------------|
-2-----------3------------------------------------------|
------------------------0-------------------------------|

[ Tab from: http://www.guitaretab.com/m/micah-bentley/74893.html ]
   Em   C               Em   C            Em   D    C
I hope    to hold you close    to whisper in your ear 
     D             Em             C
That I have never felt this way before. 
                             D              
I've never wanted something more 
         Em             C                            D
than to look into your eyes and to be right by your side
          Em               C
We could lose all track of time 
                              D
and I'll let your hands warm mine
          Em            C     
and I'll listen to your voice
                   Em    D    C
It's crazy how my heart beats fast when I'm with you
Em9   Em7    Em            D                           Em                
           I treasure each moment your'e near 
Em9   Em7  Em             D
           When I'm with you 
   Em    D     C         Em          D       
I feel much better. I forget about heartache and fear of being alone

*End with Intro*





Em9 with hammer on            Em7
-2h3--------|                -3----------|
-3----------|                -3----------|
-0----------|                -0----------|
-x----------|                -x----------|
-2----------|                -2----------|
-x----------|                -x----------|



www.myspace.com/micahbentley

Advertisement will be closed in 10 seconds