Song name
# A B C D E F G H I J K L M N O P Q R S T U V W X Y Z

Micah P Hinson - Benetah The Rose tab

Highlighted       Show chord diagrams
Micah P. Hinson
Beneath The Rose
(Tab By marffly)

G
It is said
               E5
that you cannot be found
 G
under rocks or broken skull
         E5               Bm
I will lay down, I will lay down,
         C                 G                A/F#
I can be found beneath the rose..., beneath the rose
G
alone
G
Safe to say
                 E5
that I'll never be found
  G
broken bones holding loose
               E5                  Bm
you will be crowned, you will be crowned
        C                 G               A/F#
queen of all you have found...,you have found
G
alone

 G               E5              Bm             C
-----------------------------------------------------------------|
-----------------------------------------------------------------|
----4--4--4--4-----4--4--4--4-----4--4--4--4-----1--1--1--1------|
--5--5--5--5-----2--2--2--2--------------------------------------|
---------------------------------2--2--2--2-----3--3--3--3-------|
-----------------------------------------------------------------|
 G             A/F#         G
----------------------------------------------------|
----------------------------------------------------|
---4--4--4--4---2--2--2--2----4--4--4--4------------|
-5--5--5--5-----------------------------------------|
----------------------------------------------------|
---------------2--2--2--2---3--3--3--3--------------|
Tap to rate this tab
# A B C D E F G H I J K L M N O P Q R S T U V W X Y Z