Song name
# A B C D E F G H I J K L M N O P Q R S T U V W X Y Z

Michael Alvarado - Missin You Like Crazy tab

-------------------------------------------------------------------------------
	          Missin' You Like Crazy - Michael Alvarado
-------------------------------------------------------------------------------
Tabbed by: nomorebeans
Email: dinosaur_108@yahoo.com (i made it when i was 10, gosh)

Tuning: standard

Chords used:
      Bb     Cm     Eb     Dm     Eb7 <--- Used just once xD
e|----6------8------6------10------6------|
B|----6------8------8------10------8------|
G|----7------8------8------10------7------|
D|----8------10-----8------12------8------|
A|----8------10-----6------12------6------|
E|----6------8------x------10------x------|

**** The notes in (parentheses) are there because you can play they optionally,
and also because I don't know when and when not to play them :D ****

Intro/Verse
   Bb                      Cm
e|--------------------------------------------------------|
B|--------------------------------------------------------|
G|----(7)---(7)---(7)---(7)---(8)----(8)----(8)----(8)----|
D|-----8-----8-----8-----8-----10-----10-----10-----10----|
A|-----8-----8-----8-----8-----10-----10-----10-----10----|
E|--6-----6-----6-----6-----8------8------8------8--------|
    Eb                      Bb
e|--------------------------------------------------------|
B|----(8)---(8)---(8)---(8)-------------------------------|
G|-----8-----8-----8-----8----(7)---(7)---(7)---(7)-------|
D|-----8-----8-----8-----8-----8-----8-----8-----8--------|
A|--6-----6-----6-----6--------8-----8-----8-----8--------|
E|--------------------------6-----6-----6-----6-----------|

***END OF INTRO(after Eb)***
    Bb
e|--------------------------------|
B|--------------------------------|
G|----(7)---(7)-------------------|
D|-----8-----8--------------------|
A|-----8-----8--------------------|
E|--6-----6-----6/-(slide down)---|

Pre-Chorus
    Cm                          Dm
e|----------------------------------------------------------------|
B|----------------------------------------------------------------|
G|----(8)----(8)----(8)----(8)-----(10)----(10)----(10)----(10)---|
D|-----10-----10-----10-----10------12------12------12------12----|
A|-----10-----10-----10-----10------12------12------12------12----|
E|--8------8------8------8------10------10------10------10--------|
     Cm
e|-------------------------------------------(8)--|
B|--------------------------------------11-10-----|     (The "(8)" is added in
G|----(8)----(8)----(8)----(8)--------8-----------|      the second pre-chorus)
D|-----10-----10-----10-----10-----10-------------|
A|-----10-----10-----10-----10---8----------------|
E|--8------8------8------8------------------------|

Chorus
    Bb                      Cm
e|--------------------------------------------------------|
B|--------------------------------------------------------|
G|----(7)---(7)---(7)---(7)---(8)----(8)----(8)----(8)----|
D|-----8-----8-----8-----8-----10-----10-----10-----10----|
A|-----8-----8-----8-----8-----10-----10-----10-----10----|
E|--6-----6-----6-----6-----8------8------8------8--------|
    Eb                      Bb
e|--------------------------------------------------------|
B|----(8)---(8)---(8)---(8)-------------------------------|       (2nd time, don't
G|-----8-----8-----8-----8----(7)---(7)-------------------|   x2   play the bass
D|-----8-----8-----8-----8-----8-----8--------------------|        part, just
A|--6-----6-----6-----6--------8-----8--------------------|        continue playing
E|--------------------------6-----6-----6-6-3--4--5-------|        Bb)

Verse 2

Pre-Chorus

Chorus

Bridge (same as verse)

Chorus into Ending
    Bb                      Cm
e|--------------------------------------------------------|
B|--------------------------------------------------------|
G|----(7)---(7)---(7)---(7)---(8)----(8)----(8)----(8)----|
D|-----8-----8-----8-----8-----10-----10-----10-----10----|
A|-----8-----8-----8-----8-----10-----10-----10-----10----|
E|--6-----6-----6-----6-----8------8------8------8--------|
    Eb                      Bb
e|--------------------------------------------------------|
B|----(8)---(8)---(8)---(8)-------------------------------|
G|-----8-----8-----8-----8----(7)---(7)-------------------|
D|-----8-----8-----8-----8-----8-----8--------------------|
A|--6-----6-----6-----6--------8-----8--------------------|
E|--------------------------6-----6-----6-6-3--4--5-------|

     Bb                      Cm
e|--------------------------------------------------------|
B|--------------------------------------------------------|
G|----(7)---(7)---(7)---(7)---(8)----(8)----(8)----(8)----|
D|-----8-----8-----8-----8-----10-----10-----10-----10----|
A|-----8-----8-----8-----8-----10-----10-----10-----10----|
E|--6-----6-----6-----6-----8------8------8------8--------|
    Eb                      Bb
e|--------------------------------------------------------|
B|----(8)---(8)---(8)---(8)-------------------------------|
G|-----8-----8-----8-----8----(7)---(7)---(7)---(7)-------|
D|-----8-----8-----8-----8-----8-----8-----8-----8--------|
A|--6-----6-----6-----6--------8-----8-----8-----8--------|
E|--------------------------6-----6-----6-----7-----------|

   Cm            Eb           Bb
e|--------------------------------------------------------|
B|-------------------(8)---(8)----------------------------|
G|----(8)----(8)------8-----8----(7)---(7)---(7)---(7)----|
D|-----10-----10------8-----8-----8-----8-----8-----8-----|
A|-----10-----10---6-----6--------8-----8-----8-----8-----|
E|--8------8-------------------6-----6-----6-----7--------|
   Cm            Eb           Bb
e|--------------------------------------------------------|
B|-------------------(8)---(8)----------------------------|
G|----(8)----(8)------8-----8----(7)---(7)----------------|
D|-----10-----10------8-----8-----8-----8-----------------|
A|-----10-----10---6-----6--------8-----8-----------------|
E|--8------8-------------------6-----6-----6--3--4--5-(6)-|

Ending Chord!
     Eb7
e|----6-----|
B|----8-----|
G|----7-----|
D|----8-----|
A|----6-----|
E|----x-----|

I think this is all correct. This is one of the first tabs I ever posted, so please bear 
with me! Hoped you liked it! Okay, bai!
Tap to rate this tab
# A B C D E F G H I J K L M N O P Q R S T U V W X Y Z