Song name
# A B C D E F G H I J K L M N O P Q R S T U V W X Y Z

Michael Angelo Batio - Intro tab

Intro
No Boundaries Album
Michael Angelo Batio
Standard Tuning

                                                        T
E|----------12v---12h15p12----------12v-----------12h15h20p15p12-------|
B|--------13---------------12----13-------------13--------------13--13-|
G|------12--------------------13--------------12------------------12---|
D|----14------------------------------------14-------------------------|
A|--15------------------------------------15---------------------------|
E|---------------------------------------------------------------------|

           T                           T                   T
E|--12h15h20p15p12--------------12h15h20p15p12------12h15h20p15p12---------|
B|----------------13----------13--------------13--13--------------13-------|
G|------------------12------12------------------12------------------12-----|
D|--------------------14--14------------------------------------------14---|
A|----------------------15----------------------------------------------15-|
E|-------------------------------------------------------------------------|

                          T                                    T
E|-----------------12h15h20p15p12------------------------12h15h20p15p12-|
B|---------------13--------------13--------------------13---------------|
G|-------------12------------------12----------------12-----------------|
D|-----------14----------------------14------------14-------------------|
A|--12--12-15--------------------------15-12--12-15---------------------|
E|----12------------------------------------12--------------------------|

                 T
E|--------12h15h20p15p12------12v----------14v--14h17p14----------14v-|
B|--13--13--------------13--13-----------15--------------15----15-----|
G|----12------------------12-----------14-------------------14--------|
D|-----------------------------------16-------------------------------|
A|---------------------------------17---------------------------------|
E|--------------------------------------------------------------------|

                  T                    T                   T
E|----------14h17h22p17p14------14h17h22p17p14------14h17h22p17p14---------|
B|--------15--------------15--15--------------15--15--------------15-------|
G|------14------------------14------------------14------------------14-----|
D|----16--------------------------------------------------------------16---|
A|--17------------------------------------------------------------------17-|
E|-------------------------------------------------------------------------|

                   T                            T
E|----------12h15h20p15p12----------------9h12h17p12p9----------|
B|--------13--------------13------------10------------10--------|
G|------12------------------12---------9----------------9-------|
D|----14----------------------14-----11------------------11-----|
A|--15--------------------------15-12----------------------12---|
E|--------------------------------------------------------------|

               T                        T                            T
E|-------7h10h15p10p7-------------9h12h17p12p9----------------12h15h20p15p12-|
B|------8------------8----------10------------10------------13---------------|
G|-----7--------------7--------9----------------9---------12-----------------|
D|----9----------------9-----11------------------11-----14-------------------|
A|--10------------------10-12----------------------12-15---------------------|
E|---------------------------------------------------------------------------|

                          T                        T
E|------------------9h12h17p12p9-------------7h12h15p12p7-------|
B|--13------------10------------10----------8------------8------|
G|----12---------9----------------9--------7--------------7-----|
D|------14-----11------------------11-----9----------------9----|
A|--------15-12----------------------12-10------------------10--|
E|--------------------------------------------------------------|

                 T                            T
E|---------9h12h17p12p9----------------12h15h20p15p12---------|
B|-------10------------10------------13--------------13-------|
G|------9----------------9---------12------------------12-----|
D|----11------------------11-----14----------------------14---|
A|--12----------------------12-15--------------------------15-|
E|------------------------------------------------------------|

                  T                                     T
E|----------14h17h22p17p14------------------------14h17h22p17p14---------|
B|--------15--------------15--------------------15--------------15-------|
G|------14------------------14----------------14------------------14-----|
D|----16----------------------16------------16----------------------16---|
A|--17--------------------------17-12--12-17--------------------------17-|
E|-----------------------------------14----------------------------------|

E|----------14v----------16v-----------12-14-15-14-12----------------12--|
B|--------15-----------17-----12-14-15----------------15-14-12-14-15-----|
G|------14-----------16--------------------------------------------------|
D|----16-----------18----------------------------------------------------|
A|--17-----------19------------------------------------------------------|
E|-----------------------------------------------------------------------|

E|--14-15-14-12----------------------------------------------------------|
B|--------------15-14-12----------------------------------12-14-15-14-12-|
G|-----------------------14-12-10----------------10-12-14----------------|
D|--------------------------------14-12-10-12-14-------------------------|
A|-----------------------------------------------------------------------|
E|-----------------------------------------------------------------------|

E|--------------------------------------------------------------15-17-15-|
B|-----------------12-14-15-17-15-14-12----------------12-14-15----------|
G|--14-12-10-12-14----------------------14-12-10-12-14-------------------|
D|-----------------------------------------------------------------------|
A|-----------------------------------------------------------------------|
E|-----------------------------------------------------------------------|

E|-----------------------------------------------------------------------|
B|--15-14-12----------------12-14-15-17-15-14-12----------------12-14-15-|
G|-----------14-12-10-12-14----------------------14-12-10-12-14----------|
D|-----------------------------------------------------------------------|
A|-----------------------------------------------------------------------|
E|-----------------------------------------------------------------------|

E|--15-17-15-------------------------------------------------------------|
B|-----------15-14-12-------------------15-14-12-------------------------|
G|--------------------14-12-10----------------------------14-12-10-------|
D|-----------------------------14-12-10----------14-12-10----------------|
A|-----------------------------------------------------------------13-12-|
E|-----------------------------------------------------------------------|

E|-----------------------------------------------------------------------|
B|-----------------------------------------------------------------------|
G|-----14-12-10----------------------------------------------------------|
D|--------------14-12-10------------------------------------------10-7-6-|
A|--10-------------------13-12-10---------13-12-10---------10-9-7--------|

E|-----------------------------------------------------------------------|
B|-----------------------------------------------------------------------|
G|-----------------------------------------------------------------------|
D|-------------------------------------------------6-7-9---6-7-9-10---10-|
A|--10-9-7-5-------9-7-5---------7-5-3-------5-7-9-------7----------9----|
E|-----------9-7-5-------9-7-5-3-------7-5-3-----------------------------|

E|--------------------------------------12-14-15-14-12----------------12-|
B|-----------------------------12-14-15----------------15-14-12-14-15----|
G|--------10-12-14----12-14-15-------------------------------------------|
D|--12-14----------12----------------------------------------------------|
A|-----------------------------------------------------------------------|
E|-----------------------------------------------------------------------|

E|--14-15-14-12-14-15-17-------14-15-17-------15-17-19-17-15-------15-17--|
B|-----------------------14-15----------14-15----------------14-15--------|
G|------------------------------------------------------------------------|
D|------------------------------------------------------------------------|
A|------------------------------------------------------------------------|
E|------------------------------------------------------------------------|

                                                                       T
E|--19----------12-14-15-14-12----------14-15-17v--15v----------16h20h24p-|
B|-----14-15-14----------------14-15-14-----------------------17----------|
G|----------------------------------------------------------16------------|
D|--------------------------------------------------------18--------------|
A|------------------------------------------------------19----------------|
E|------------------------------------------------------------------------|
E|------------------------------------------------------------------------|

                       T          T        T       T      t
E|-p20p16-------16h20h24p20p16------------------------------------------|
B|--------17--17----------------------------------------------------15--|
G|----------16-----------------13h21p16-9h16p13-------------------14----|
D|----------------------------------------------------------------------|
A|----------------------------------------------11h21p14h21p14p11-------|
E|----------------------------------------------------------------------|

           T                   T         T        T                T
E|--14h17h22p17p14------14h17h22p17p14----------------------16h20h24p20p16-|
B|----------------15--15----------------------------------17---------------|
G|------------------14----------------------------------16-----------------|
D|---------------------------------------------12h21p16--------------------|
A|-------------------------------------9h17p12-----------------------------|
E|-------------------------------------------------------------------------|

       T        T                T          T               T    T
E|------------------------16h20h24p20p16-------------16h20h24p20h24p20p16-|
B|--12h21p17------------17-------------------------17---------------------|
G|--------------------16-------------------------16-----------------------|
D|---------------------------------------9h18p14--------------------------|
A|-----------11h19p14-----------------------------------------------------|
E|------------------------------------------------------------------------|

        T     T          T       T       T       T      T     T       T
E|--12h19p15h19p15p12-----------------------------------------------------|
B|------------------------------------------------------------------------|
G|----------------------------------------------------------5h13p9--------|
D|--------------------10h21p16-----------------------4h12p6---------------|
A|-----------------------------9h17p12-4h10p7----------------------4h10p7-|
E|--------------------------------------------3h10p7----------------------|

E|---------------------------------------------------------------15-14-12-|
B|------------------------------------------------------------------------|
G|------------------------------------------------------12-14-15----------|
D|---------------------11-12-11----------------11-12-14-------------------|
A|------------11-12-14----------14-12-11-12-14----------------------------|
E|--0--5/12v--------------------------------------------------------------|

E|-----------------------------------------------------------------------|
B|--15-14-12-------------------------------------------------------------|
G|--------------------14-12-10-------------------------------------------|
D|-----------14-12-11----------14-12-11----------------------------------|
A|--------------------------------------11-12-14-12-11---------------11--|
E|-----------------------------------------------------12-11-9-11-12-----|

E|--------------------------------------------17-15-14-------------------|
B|-----------------------------------------------------17-16-14----------|
G|-----------------------------------12-14-15-------------------15-14-12-|
D|--------11-12-11----------11-12-14-------------------------------------|
A|--12-14----------14-12-11----------------------------------------------|
E|-----------------------------------------------------------------------|

E|-----------------14-15-------14-15-17----14-15-17-19-17-15-14----------|
B|-------14-16-17--------16-17----------17----------------------17-15----|
G|-14-15--------------------------------------------------------------14-|
D|-----------------------------------------------------------------------|
A|-----------------------------------------------------------------------|
E|-----------------------------------------------------------------------|

E|--------------14-15-17-19-15-17-19-20----------17-19-20---------20-19--|
B|--------15-17-------------------------19-17-16---------19-17-16--------|
G|--12-14----------------------------------------------------------------|
D|-----------------------------------------------------------------------|
A|-----------------------------------------------------------------------|
E|-----------------------------------------------------------------------|

E|--17----------19-20-22-20-19----------------19-20-22-20-19-20vv--------|
B|-----19-17-16----------------19-17-16-17-19----------------------------|
G|-----------------------------------------------------------------------|
D|-----------------------------------------------------------------------|
A|-----------------------------------------------------------------------|
E|-----------------------------------------------------------------------|

E|--------------16h19h24p19p16----------16h19h24p19p16-------------------|
B|-----------17----------------17----17----------------17----------------|
G|--------16----------------------16----------------------16-------------|
D|-----17----------------------------------------------------17----------|
A|--19----------------------------------------------------------19v------|
E|-----------------------------------------------------------------------|
Tap to rate this tab
 
# A B C D E F G H I J K L M N O P Q R S T U V W X Y Z