Song name
# A B C D E F G H I J K L M N O P Q R S T U V W X Y Z

Michael Angelo Batio - Time Traveller tab

Starting to tab whole song ,will add bits as I progress.

Standard Tuning - E A D G B E

-------------------------------------------------------------------------------

Intro ,slght distortion

    A         A/F     C6add9     Bbadd6
E----------------------------------------|
B----------------------------------------|
G-------4---------4--------3---------0---|
D----2---------2--------2---------3------|
A-0------------------3---------1---------|
E-----------1----------------------------|

Intro ,chromatic rff ,full distortion

E----------------------------------------------------|
B----------------------------------------------------|
G----------------------------------------------------|
D----------------------------------------------------|
A-------------2-3--4v---2-3--5-4-2-------------------|
E--4--0-2-3-4-----------------------3-2--1-2-3-4-0---|
   pm-------------     pm------------    pm----------|

Enter keyboards

E--------------------------------------|
B--------------------------------------|
G--------------------------------------|
D--------------------------------------|
A--------------------------------------|
E--0-0-0-0-0-0-0-0-0-0-0-0-0-0-0-0-0---|
   pm----------------------------------|

First Riff

       E          C7        A7           G7
E---------------------------------------------------|
B----------------5--5-------------------------------|
G----------------3--3---6--6-6-6--6-6---4--4--------|
D--2--2-2--2-2---5--5---5--5-5-5--5-5---3--3--------|
A--2--2-2--2-2---3--3---7--7-7-7--7-7---5--5--------|
E--0--0-0--0-0----------5--5-5-5--5-5---3--3--------|
     pm-----

Keyboard riff

E------------2--3--5s7v---5-3-5--0--5--7--7s2v----|
B--5-3-5--0---------------------------------------|
G-------------------------------------------------|
D-------------------------------------------------|
A-------------------------------------------------|
E-------------------------------------------------|

Main Riff Variation 1

E----------------------------------------------------------------|
B---------------------------------------------------------3------|
G-------------------------------------------------------4--------|
D------4---5-4--------4---5-4------------7-5----------5----------|
A--0-2---2-----2--3-3---3-----3----4-7-4-----4----2-5------------|
E--------------------------------5--------------3----------------|
  pm-------------------------------------------------------------|

Main Riff Variation 2

E----------------------------------------------------------|
B----------------------------------------------------------|
G----------------------------2-5-4-2-----------------------|
D------4---5-4---------2-4-5---------5-4-2-----------------|
A--0-2---2-----0-2-3-5---------------------5-3-2-----------|
E------------------------------------------------5-3-2-----|
  pm-------------------------------------------------------|

E------------------------------------|
B---------------------------3--------|
G-------------------------4----------|
D----------7-5----------5------------|
A----4-7-4-----4----2-5--------------|
E--5--------------3------------------|
   pm--------------------------------|

Main Riff Variaton 3

E--------------------------------------------------------------|
B-------------------------------------------------------3------|
G-----------------------------------------------------4--------|
D------4---5-4----4-5-4----------------7-5----------5----------|
A--0-2---2------3-------3-2------4-7-4-----4----2-5------------|
E---------------------------3--5--------------3----------------|
   pm----------------------------------------------------------|

Pre-lead lick

E------------------|
B------------------|
G------------------|
D--2-2-2-2--2------|
A--2-2-2-2--2------|
E--0-0-0-0--0------|

Lead Lick

E-----------------------------------------------------|
B-----------12-14-15-14-12----------------------------|
G--12-14-15----------------15-14-12-------------------|
D-----------------------------------16-14-12-16v------|
A-----------------------------------------------------|
E-----------------------------------------------------|

Solo 1 Rythmn

E--------------------------------------------------|
B--------------------------------------------------|
G--------------------------------------------------|
D--------------------------------------3-3-3-3-----|
A----------------3-3-3-3-0-0-0-0-0-0-0-1-1-1-1-----|
E--2-2-2-2-2-2-2-2-2-2-2-1-1-1-1-1-1-1-------------|
Tap to rate this tab
 
# A B C D E F G H I J K L M N O P Q R S T U V W X Y Z