Song name
# A B C D E F G H I J K L M N O P Q R S T U V W X Y Z

Michael Angelo - Yngwie Cant Touch This tab

Artist: Michael Angelo Batio
Song: Yngwie Cant Touch This

Tabbed by greg H. This is part of the sweep picking part at around 1:25, if anyone knows 
of this, please tab it, this site needs it.
Email:virtuoso_20@hotmail.com

Standard Tuning:

|-------17-22p17----------17-20p17----------15-18p15----------15-17p13-------|
|----18----------18----18----------17----17----------15----15----------15----|
|-19----------------19----------------17----------------15----------------14-|
|----------------------------------------------------------------------------|
|----------------------------------------------------------------------------|
|----------------------------------------------------------------------------|

|----13-15p12----------12-13p10----------10 12p8---------10-12~~-----------|
|-15----------14----14----------10----10---------10---10-------------------|
|----------------15----------------10---------------9----------------------|
|--------------------------------------------------------------------------|
|--------------------------------------------------------------------------|
|--------------------------------------------------------------------------|

|-------17-22p17----------17-20p17----------15-18p15----------15-17p13-------|
|----18----------18----18----------17----17----------15----15----------15----|
|-19----------------19----------------17----------------15----------------14-|
|----------------------------------------------------------------------------|
|----------------------------------------------------------------------------|
|----------------------------------------------------------------------------|

|----13-15p12----------------12-15p14p12-----------------------------------|
|-15----------14----------14-------------15p14p12--------------------------|
|----------------15-12h15-------------------------14p12--------------------|
|-------------------------------------------------------15p14p12~~---------|
|--------------------------------------------------------------------------|
|--------------------------------------------------------------------------|

|-------17-22p17----------17-20p17----------15-18p15----------15-17p13-------|
|----18----------18----18----------17----17----------15----15----------15----|
|-19----------------19----------------17----------------15----------------14-|
|----------------------------------------------------------------------------|
|----------------------------------------------------------------------------|
|----------------------------------------------------------------------------|

|---13-15p12-------12-15-14-12---------------------------------------------|
|-15---------14--14------------15-13-12------------------------------------|
|--------------15-----------------------15-13-12---------------------------|
|------------------------------------------------15-14-12~~----------------|
|--------------------------------------------------------------------------|
|--------------------------------------------------------------------------|

|-22p17------17-20p17------17-18p15------15-17p13------13-15p12------12----|
|------18--18--------17--17--------15--15--------15--15--------14--14------|
|--------19------------17------------15------------14------------15--------|
|--------------------------------------------------------------------------|
|--------------------------------------------------------------------------|
|--------------------------------------------------------------------------|

|----------12h15p14p12-----------------------------------------------------|
|-12h13h15-------------15p14p12--------------------------------------------|
|-------------------------------15p14p12-----------------------------------|
|----------------------------------------15p13p12--------------------------|
|-------------------------------------------------15p13p12-----------------|
|----------------------------------------------------------15p13p12/10~~---|

thats all i can do.
Tap to rate this tab
# A B C D E F G H I J K L M N O P Q R S T U V W X Y Z