Song name
# A B C D E F G H I J K L M N O P Q R S T U V W X Y Z

Michael Angelo - Neo-classical tab

tabbed josh katen

Tuning; Standard (EADGBe)

Michael Angelo - "Neo-Classical Solo"

Legend:

H = Hammer On
P = Pull-Off

|-------10----11-10-------|-------13----10----------------|
|----11----11-------13-11-|-10-13----13----13-11h13p11p10-|
|-12----------------------|-------------------------------|
|-------------------------|-------------------------------|
|-------------------------|-------------------------------|
|-------------------------|-------------------------------|


|-------------------------------|-------------10----------------|
|----10-11----13-11-10h11p10----|----------10----13-11h13p11p10-|
|-12-------12----------------12-|-11----11----------------------|
|-------------------------------|----12-------------------------|
|-------------------------------|-------------------------------|
|-------------------------------|-------------------------------|


|-------10----11-10h11p10-------|-------13----10----------------------|
|----11----11-------------13-11-|-10-13----13----13-11-10-13-12-11-10-|
|-12----------------------------|-------------------------------------|
|-------------------------------|-------------------------------------|
|-------------------------------|-------------------------------------|
|-------------------------------|-------------------------------------|


|-------------------------------|------------------|
|----10-11----13-11-10h11p10----|------------------|
|-12-------12----------------12-|-11b12-11-(11)----|
|-------------------------------|------------------|
|-------------------------------|------------------|
|-------------------------------|------------------|


||--------10----------11-------15-13-11--------------||
||-----11----11----13----13-------------15-13-11-----||
||--12----------14----------12-------------------14--||
||---------------------------------------------------||
||---------------------------------------------------||
||---------------------------------------------------||


|-------10----------11-------15-13-11-------------|------------------------------------------|
|----11----11----13----13-11----------15-13-11----|------------------------------------------|
|-12----------14-------------------------------14-|-15-14-12-14----14----14----14----14------|
|-------------------------------------------------|-------------14----12----11---------------|
|-------------------------------------------------|-------------------------------13----12---|
|-------------------------------------------------|------------------------------------------|


||--------15----------16-------20-18-16--------------||
||-----16----16----18----18-------------20-18-16-----||
||--17----------19----------17-------------------19--||
||---------------------------------------------------||
||---------------------------------------------------||
||---------------------------------------------------||


|-------15----------16-------20-18-16-------------|-----------------------------------------|
|----16----16----18----18-16----------20-18-16----|-----------------------------------------|
|-17----------19-------------------------------19-|-20-19-17-19----19----19----19----19-----|
|-------------------------------------------------|-------------19----17----16--------------|
|-------------------------------------------------|-------------------------------18----17--|
|-------------------------------------------------|-----------------------------------------|


||--------15----------16----------15----------13-----||-------15----------16-------20-18-16-------------|
||-----16----16----18----18----16----16----15----15--||----16----16----18----18-16----------20-18-16----|
||--17----------19----------17----------16-----------||-17----------19-------------------------------19-|
||---------------------------------------------------||-------------------------------------------------|
||---------------------------------------------------||-------------------------------------------------|
||---------------------------------------------------||-------------------------------------------------|


|----------------------------------------------------------|
|----------------------------------------------------------|
|-20-19-17-19----19----19----19----19----------------------|
|-------------19----17----16-------------------------------|
|-------------------------------18----17-(17)b18-(17)-15---|
|----------------------------------------------------------|


Tap to rate this tab
# A B C D E F G H I J K L M N O P Q R S T U V W X Y Z