Michael Bolton - How Am I Supposed To Live Without You tab

Solo by Michael Landau (Tab by Hendrik Helmer)

1

|------------------------------|
|-----11-13b15--b15--11-13~~~~-|
|--10--------------------------|
|------------------------------|
|------------------------------|
|------------------------------|

2

|------------------------------------------------|
|-----11-13b15>16----15`13--11-13----------------|
|--10----------------------------------10-10~~~~-|
|------------------------------------------------|
|------------------------------------------------|
|------------------------------------------------|

3

|---------------------------------------------|
|--3-6-6-6-s8-6-3b4`3--------3----------------|
|------------------------5-3---3-5------------|
|-------------------------------------3-3~~~~-|
|---------------------------------------------|
|---------------------------------------------|

4

|--------------------------------------13-13~~~-|
|--------------------11p8--13p11----------------|
|--------------10p7-----------------------------|
|--------10p8-----------------------------------|
|--10p8-----------------------------------------|
|-----------------------------------------------|

5

|--10b11`10------------------------------------------|
|---------------11-----------------------------------|
|-----------------10-7b8`7--------------7------------|
|-------------------------------8-10-10---8-10-------|
|-----------------------------------------------8~~~-|
|----------------------------------------------------|

6

|-----------10-11-10h11p10-------------|
|-----11-13---------------------13~~~~-|
|--10----------------------------------|
|--------------------------------------|
|--------------------------------------|
|--------------------------------------|

7

|--------10-11-12-11h12p11---------------|
|--11-13--------------------------14~~~~-|
|----------------------------------------|
|----------------------------------------|
|----------------------------------------|
|----------------------------------------|

8

|-----------------16-18-19~~~-|
|--14/16--17-19---------------|
|-----------------------------|
|-----------------------------|
|-----------------------------|
|-----------------------------|
Tap to rate this tab
 
# A B C D E F G H I J K L M N O P Q R S T U V W X Y Z