Song name
# A B C D E F G H I J K L M N O P Q R S T U V W X Y Z

Michael Bolton - Save Our Love tab

-----------------------------------------------------------------
Save Our Love - Michael Bolton
-----------------------------------------------------------------

Album - The Hunger

Tabbed by: Beanboy

Tuning: Standard


Intro & Verse keyboard riff

  Em D  D C Em D  C Cb5 C
e|--------------------------------|
B|-8-7--7-5--8-7--5---------------|
G|-9-7--7-5--9-7--5-5-5-----------|
D|-9-7--7-5--9-7--5-4/5-----------|
A|--------------------------------|
E|-0 (ring out)-------------------|


Pre-Chorus

e|--------------------------------|
B|--------------------------------|
G|-5-2-7--2-5-7-------------------|
D|-5-2-7--2-5-7-------------------|
A|-3-0-5--0-3-5-------------------|
E|--------------------------------|

Chorus

e|--------------------------------|
B|--------------------------------|
G|-5---7-7---------5--------------|
D|-5-5-7-7---------5--------------|
A|-3-5-5-5--end on 3--------------|
E|---3----------------------------|

Under solo

e|--------------------------------|
B|--------------------------------|
G|--------------------7-5---2-----|
D|--------------------7-5-5-2-----|
A|--------------------5-3-5-0-----|
E|-00000-0-0-0-0-etc------3-------|

Break - Chorus

Chorus till end



| /  slide up
| \  slide down
| h  hammer-on
| p  pull-off
| ~  vibrato
| +  harmonic
| x  Mute note
Tap to rate this tab
# A B C D E F G H I J K L M N O P Q R S T U V W X Y Z