Song name
# A B C D E F G H I J K L M N O P Q R S T U V W X Y Z

Michael Bolton - Said I Loved You But I Lied tab

-------------------------------------------------------------------------------
             	     Said I Loved You But I Lied - Michael Bolton
-------------------------------------------------------------------------------
Tabbed by: Raghu Gopakumar
Email : raghu.gopakumar@gmail.com

This solo was not on the site... But now it is :-).. 
i think it's pretty accurate.. considering it's my first shot at tabbing. ;-)

e|---------------------------------------------------------------------------|
B|------------------------------------4-4/6----------------------------------|
G|---/7-7---6/7-7---7\6-6---6-6-6--7----------2-2/4---6/7-6---4/6-6---6/7-7--|
D|---------------------------------------------------------------------------|
A|---------------------------------------------------------------------------|
E|---------------------------------------------------------------------------|

e|---6--9--11--------------------------------------------6-7--7/8------------|
B|---7----------11--9/7--7--9--11--9--7-6--7-4--6-2-----------------2-2/4----|
G|---8-----------------------------------------------------------------------|
D|---8-----------------------------------------------------------------------|
A|---------------------------------------------------------------------------|
E|---------------------------------------------------------------------------|

e|---7-7/9\6-----------------------------------------------------------------|
B|---------------------------------------------------------------------------|
G|---------------------------------------------------------------------------|
D|---------------------------------------------------------------------------|
A|---------------------------------------------------------------------------|
E|---------------------------------------------------------------------------|



| /  slide up
| \  slide down
| h  hammer-on
| p  pull-off
| ~  vibrato
| +  harmonic
| x  Mute note
=============================
Tap to rate this tab
 
# A B C D E F G H I J K L M N O P Q R S T U V W X Y Z