Song name
# A B C D E F G H I J K L M N O P Q R S T U V W X Y Z

Michael Bolton - Sittin On The Dock Of The Bay tab

Michael Bolton
Sittin' On The Dock Of The Bay (Cover)
Tuning: Standard
Transcribed by Soch H.

Guitar Solo: (1:58)
|--------------------------------------------------------------------------|
|-----------------------8-10-10b12==r---8--10-8------8-10------------------|
|---7-9b11-9b11~~-----x-------------------------9b10------9b11rb11p7---9---|
|-9-----------------x------------------------------------------------9-----|
|-----------------x--------------------------------------------------------|
|--------------------------------------------------------------------------|

|--------------------10-10~--12b13==----------------------------------------|
|--------------------------------------13-10--------------------------------|
|-9b11rp7---7-7~------------------------------13p12p10----12----10----------|
|---------9------9\------------------------------------12----12----12~--9\--|
|---------------------------------------------------------------------------|
|---------------------------------------------------------------------------|

|-10----10------------------------------------------------------------------|
|-10-12-10-12-10----10-----------------------------------------------10-----|
|----11----11----12----11---------7-9b11rp7-9~--7---7-7-----7~--9s11--------|
|-------------------------12~---9-----------------9-----9-9-----------------|
|---------------------------------------------------------------------------|
|---------------------------------------------------------------------------|

|-10-10~-12b14==-----x--x-x---18b20=---17-15-------15-17-------------------|
|--------------------x--x-x------------------17b19-------17b19-15~-15~-----|
|--------------------x--x-x------------------------------------------------|
|--------------------------------------------------------------------------|
|--------------------------------------------------------------------------|
|--------------------------------------------------------------------------|

|-------------------------|
|----15-17b19-15~---------|
|-16--------------16\-----|
|-------------------------|
|-------------------------|
|-------------------------|

Legend:
b:   bend
~:   vibrato
r:   release
p:   pulloff
s:   slide
Tap to rate this tab
# A B C D E F G H I J K L M N O P Q R S T U V W X Y Z