Song name
# A B C D E F G H I J K L M N O P Q R S T U V W X Y Z

Michael Brook - Best Unsaid tab

http://www.michaelbrookmusic.com/

The best song off of the "Into the Wild" score imo - played when he is in "the magic 
at night

Main guitar riff throughout song:

---5---5---5---5---2---2---3---3---2---2---2---2---0---0---0---0--|
--3-3-3-3-3-3-3-3-3-3-3-3-3-3-3-3-3-3-3-3-3-3-3-3-2-2-2-2-2-2-2-2-|
-4---4---4---4---4---4---4---4---4---4---4---4---2---2---2---2----|
------------------------------------------------------------------|
------------------------------------------------------------------|
------------------------------------------------------------------|

First string solo for guitar:

-17~~--17-15~-17--14~~~~-------14~--14-14-12~~~-|
-------------------------15~--------------------|
------------------------------------------------|
------------------------------------------------|
------------------------------------------------|
------------------------------------------------|

Second string solo for guitar:

--------------------------------------------------------17~~~-----|
-------12--------------------------------------------/19----------|
--14~~~---14--11~~~/7~~~~-----11~~~---12--11--9~~-----------------|
------------------------------------------------------------------|
------------------------------------------------------------------|
------------------------------------------------------------------|

your welcome...if anyone knows the bass please post it...
Tap to rate this tab
 
# A B C D E F G H I J K L M N O P Q R S T U V W X Y Z