Song name
# A B C D E F G H I J K L M N O P Q R S T U V W X Y Z

Michael Brook - Salvation Mountain tab

-=Salvation Mountain by Michael Brook=-
From the "Into the Wild" Score
==================

Email any edits to: jamey_maki@yahoo.com

This is an incredible song and very simple to learn. The key is to get the bass line and 
the D to G alternating rhythm down.

This is the basic structure. The full song gets difficult to follow after the last 
section here but this gives you the idea. I always mix it up after running through once. Enjoy!

E|--------------------|--------------------|
B|--------------------|--------------------|
G|--------0-----0-----|--------0-----0-----|
D|-----0-----0-----0--|-----0-----0-----0--|
A|--------------------|--------------------|
E|--3-----------------|--3-----------------|  X2


E|--------------|--------------------|-----------|--------------------|
B|-----------3--|--------1--------0--|-----------|--------------------|
G|--------0-----|--------------------|--0-----0--|--------0-----0-----|
D|-----0--------|--0--------0--------|-----0-----|-----0-----0-----0--|
A|--------------|--------------------|-----------|--------------------|
E|--3-----------|-----3--------3-----|-----------|--3-----------------|	X2


E|--------------|--------------------|-----------|--------------------|
B|-----------3--|--------1--------0--|-----------|--------------------|
G|--------0-----|--0--------0--------|--0-----0--|--------0-----0-----|
D|-----2--------|--------------------|-----2-----|-----2-----2-----2--|
A|--3-----------|-----2--------2-----|-----------|--3-----------------|
E|--------------|--------------------|-----------|--------------------|	X1


E|--------------|--------------------|-----------|--------------------|
B|-----------3--|--------1--------0--|-----------|--------------------|
G|--------2-----|--2--------2--------|--2-----2--|--------2-----2-----|
D|-----2--------|--------------------|-----2-----|-----2-----2-----2--|
A|--0-----------|-----0--------0-----|-----------|--0-----------------|
E|--------------|--------------------|-----------|--------------------|	X2
Tap to rate this tab
# A B C D E F G H I J K L M N O P Q R S T U V W X Y Z