Song name
# A B C D E F G H I J K L M N O P Q R S T U V W X Y Z

Michael Buble - Save The Last Dance For Me tab

tuning: standard

E--------------------------------------|
B--------------------------------------|
G------7---5-----4-----4---------------|
D-------------7-----5-----7---4--------|
A---5----------------------------------|
E--------------------------------------|

E--------------------------------------|
B--------------------------------------|
G------7---5-----4---7---12--12--------|
D-------------7------------------------|
A---5----------------------------------|
E--------------------------------------|


really unsure about the last 2 notes. its also probably easier to play on other strings 
some open strings but this is how i figured it out.
Tap to rate this tab
# A B C D E F G H I J K L M N O P Q R S T U V W X Y Z