Guitaretab - guitar tabs
Song name
# A B C D E F G H I J K L M N O P Q R S T U V W X Y Z

Michael Buble - Everything tab

//"EVERYTHING"\\
~Michael Buble~

Standard Tuning.
(SOLO & INTRO)

SOLO
e|--------------------------------------------------------------------------|
B|--------------------------------------------------------------------------|
G|-------------------------------------------------------77-66-------9/11\9-|
D|-0-000---7--9/11-9-9s7--7-------7---7h9p7--7-------00-------99-7-6--------|
A|-------9---------------9--9\--/7--7-------7----0h2------------------------|
D|--------------------------------------------------------------------------|
[ Tab from: http://www.guitaretab.com/m/michael-buble/205995.html ]
e|--------------------------------------------------------------------------|
B|---------------10-8-------------------------------------------------------|
G|-7-11---4-7-4--7--7--7/11--9-7~-------------------------------------------|
D|-------5------------------------------------------------------------------|
A|--------------------------------------------------------------------------|
E|--------------------------------------------------------------------------|

INTRO
       [D]
e|---2-----2-0--|------2----|-----2-0---|---2-0--------|
B|-------------3|---3-------|---------3-|-3-----3--3-3-|
G|-2---2-1------|-----2-----|-2-1-------|------------2-|
D|-0------------|---0-------|-----------|----------0-0-|
A|--------------|-----------|-----------|--------------|
D|-------0------|-----------|---0-------|-3------------|


another version to play Everything by Michael Buble.
Listen to song for rythm wise.
Hope this tab helps alot.

Cheers, 
UG Aussie.



Related for Everything tab
×
Best way to learn
"Everything"