Guitaretab - guitar tabs
Song name
# A B C D E F G H I J K L M N O P Q R S T U V W X Y Z

Michael Buble - Everything tab

The Solo from "Everything" by Michael Bublé
Tabbed by: BravoAMF
Tuning: Standard

Solo:
e|--------------------------------------------------------|
B|--------------------------------------------------------|
G|----------------9/11p9-9p7---7-7---------7---7h9-7---7--|
D|--0-0---0-0---7------------9-----9\----7---7-------7----|
A|------------9-------------------------------------------|
E|--------------------------------------------------------|

[ Tab from: http://www.guitaretab.com/m/michael-buble/264569.html ]
e|----------------------------------------------------------------------|
B|----------------------------------------------------7---10-8-7--------|
G|-------------7-7-6-6-----------9/11p9---9p7-------7---7--------7h9-7--|
D|---------0-0---------9-9-7-6-9--------9-----9---7---------------------|
A|--0--0h2--------------------------------------------------------------|
E|----------------------------------------------------------------------|

Notes:
- The spaces between the notes don't accurately correspond to the time in between the 
notes that you hear in the song
- For the "9\" you just slide however far you want, but you need to fade out the "9"
- Feel free to improvise. I know some like to use the G string on the 7th fret at the 
same time as you play the "10-8-7" part.
Related for Everything tab
Everything chords by Michael Buble