Michael Buble - Fever tab

This is just the intro of the bass riff on a guitar. Just something for you to play 
along when you dont own a bass guitar.

This is the video I tabbed from: http://www.youtube.com/watch?v=kBRcr6MR1-M

As far as I know this is also the bass riff for the first verse (just put a little 
improv) until the key changes or whatever you call it. Cheers


e|-------------------------------------------------------------------------------------|
B|-------------------------------------------------------------------------------------|
G|--------------------------------------------------3----------------------------------|
D|-------------------------------------------------------------------------------------|
A|----0--3--------3--6--------0--3--------6-----6--------------------------------------|
E|-------------------------------------------------------------------------------------|


e|-------------------------------------------------------------------------------------|
B|-------------------------------------------------------------------------------------|
G|----------------------------------------0------0--3----------------------------------|
D|-------------------------------------------------------------------------------------|
A|----0--3--------3--6--------0--3-----------------------------------------------------|
E|-------------------------------------------------------------------------------------|
Tap to rate this tab
 
# A B C D E F G H I J K L M N O P Q R S T U V W X Y Z