Guitaretab - guitar tabs
Song name
# A B C D E F G H I J K L M N O P Q R S T U V W X Y Z

Michael Buble - Home tab

Michael Bublé - Home
Tuning: EADGBe
Chords:
G    : 320030
D/F# : 200230
Em   : 022030
Dsus2: xx0230
C    : x32010
A    : x02220
Fmaj7: x33210
Bm   : x20202
G7   : 320031


Intro:
e|----------------------------------------------------|
B|---------------------------0------------------------|
G|--2/4-2---0h2-----0------0-----2-2-0--0-----2/4--2--|
D|-----------------4-4---2------------4---------------|
A|----------------------------------------------------|
E|----------------------------------------------------|

Intro + Verse 1:
    G   D/F# Em  Dsus2  C  Dsus2  G  Dsus2
e|--0----0----0----0----0----0----0----0--|
B|--3----3----3----3----1----3----3----3--|
G|--0----2----0----2----0----2----0----2--|   2x
D|--0----0----2----0----2----0----0----0--|
A|--2----0----2----x----3----x----2----x--|
E|--3----2----0----x----x----x----3----x--|

    G   D/F# Em  Dsus2  C  Dsus2  G    G
e|--0----0----0----0----0----0----0----0--|
B|--3----3----3----3----1----3----3----3--|
G|--0----2----0----2----0----2----0----0--|
D|--0----0----2----0----2----0----0----0--|
A|--2----0----2----x----3----x----2----2--|
E|--3----2----0----x----x----x----3----3--|

Chorus:
    C   Em    A    C Dsus2
e|--0----0----0----0---0--|
B|--1----0----2----1---3--|
G|--0----0----2----0---2--|
D|--2----2----2----2---0--|
A|--3----2----0----3---x--|
E|--x----0----x----x---x--|

    C   Em  Fmaj7 Dsus2
e|--0----0----0----0----3--2--------------|
B|--1----0----1----3----------------------|
G|--0----0----2----2------------2/4-2-0---|
D|--2----2----3----0--------------------4-|
A|--3----2----3----x----------------------|
E|--x----0----x----x----------------------|

Verse 2:
    G   D/F# Em  Dsus2  C  Dsus2  G  Dsus2
e|--0----0----0----0----0----0----0----0--|
B|--3----3----3----3----1----3----3----3--|
G|--0----2----0----2----0----2----0----2--|
D|--0----0----2----0----2----0----0----0--|
A|--2----0----2----x----3----x----2----x--|
E|--3----2----0----x----x----x----3----x--|

    G   D/F#  Bm Dsus2  C  Dsus2  G  Dsus2
e|--0----0----2----0----0----0----0----0--|
B|--3----3----0----3----1----3----3----3--|
G|--0----2----2----2----0----2----0----2--|
D|--0----0----0----0----2----0----0----0--|
A|--2----0----2----x----3----x----2----x--|
E|--3----2----x----x----x----x----3----x--|
[ Tab from: http://www.guitaretab.com/m/michael-buble/283567.html ]
Solo:
e|-------10---10-12-14---10---10-12---------------------------|
B|--8-10--------------------12------12----10-8-7-8-10-7---88--|
G|------------------------------------------------------7-99--|
D|------------------------------------------------------------|
A|------------------------------------------------------------|
E|------------------------------------------------------------|

e|------10-7-------15-14-------10---------------10-7-------15-12--|
B|-----------10-12-------10-12----10/12----8-10------10-12--------|
G|--7-9-----------------------------------------------------------|
D|----------------------------------------------------------------|
A|----------------------------------------------------------------|
E|----------------------------------------------------------------|

Chorus:
    C   Em    A    C Dsus2
e|--0----0----0----0---0--|
B|--1----0----2----1---3--|
G|--0----0----2----0---2--|
D|--2----2----2----2---0--|
A|--3----2----0----3---x--|
E|--x----0----x----0---x--|

    C   Em  Fmaj7 Dsus2
e|--0----0----0----0-----3-2-|
B|--1----0----1----3---------|
G|--0----0----2----2---------|
D|--2----2----3----0---------|
A|--3----2----3----x---------|
E|--x----0----x----x---------|

Verse 3:
    G   D/F# Em  Dsus2  C  Dsus2  G  Dsus2
e|--0----0----0----0----0----0----0----0--|
B|--3----3----3----3----1----3----3----3--|
G|--0----2----0----2----0----2----0----2--|
D|--0----0----2----0----2----0----0----0--|
A|--2----0----2----x----3----x----2----x--|
E|--3----2----0----x----x----x----3----x--|

    G   D/F#  G   G7    C  Dsus2  G  Dsus2
e|--0----0----0----1----0----0----0----0--|
B|--3----3----3----3----1----3----3----3--|
G|--0----2----0----0----0----2----0----2--|
D|--0----0----0----0----2----0----0----0--|
A|--2----0----2----2----3----x----2----x--|
E|--3----2----3----3----x----x----3----x--|

Chorus + Outro:
    G  D/F#  Em   Bm    C  Dsus2  G   Dsus2
e|--0----0----0----2----0----0----0----0--|
B|--3----3----3----0----1----3----3----3--|
G|--0----2----0----2----0----2----0----2--|
D|--0----0----2----0----2----0----0----0--|
A|--2----0----2----2----3----x----2----x--|
E|--3----2----0----x----x----x----3----x--|

    G   D/F# Em   Bm    C  Dsus2  G
e|--0----0----0----2----0----0---------3--|
B|--3----3----3----0----1----3--------3---|
G|--0----2----0----2----0----2-------0----|
D|--0----0----2----0----2----0------0-----|
A|--2----0----2----2----3----x-----2------|
E|--3----2----0----x----x----x----3-------|

If there's something wrong please tell me ;)
Related for Home tab
Home chords by Michael Buble