Song name
# A B C D E F G H I J K L M N O P Q R S T U V W X Y Z

Michael Buble - Everything tab

                Tabbed by: Josh Daley

Tuning: D A D G B E (Drop D)


Intro: (Finger-picked)

--------------------------------------------------|
--------------------------------------------------|
--------------------------------------------------|
-----4---------4--2--0--0----4---------4--2--0--0-|
--0------0--------2-----0--0-----0--------2-----0-|
--0--4------6----------------4------6-------------|

--------------------------------------------|
--------------------------------------------|
--------------------------------------------|
-----4---------4-----0------4-2--0--0----0--|
--0------0--------7-------1---1-----0-------|
-----4------6-----6-----5----------------5--|



Verse:

--------------------------------------------------------|
--------------------------------------------------------|
--------------------------------------------------------| x2
----------2^0-----------4^2-----------2^4----------2^0--|
--------0-------------0-------------0------------0------|
------0-------------0-------------0------------0--------|

(slight palm mute)
--2-2-2--2-2--0-0-0--0-0--3-3-3-0-0-0--2-2--0---0-0-|
--3-3-3--3-3--0-0-0--0-0--3-3-3-3-3-3--3-3--3---3-3-|
--2-2-2--2-2--1-1-1--1-1--3-3-3-0-0-0--2-2--0---0-0-|
------4--4-4--0-0-0--0-0--5-5-5-2-2-2--0-0--2---2-2-|
--------------2-2-2--2-2--5-5-5-0-0-0-------0---0-0-|
--------------2-2-2--2-2--5-5-5---------------------|

(slight palm mute)
--2-2-2--2-2--0-0-0--0-0--3-3-3-0-0-0--2-2-2-2-2-2-2-|
--3-3-3--3-3--0-0-0--0-0--3-3-3-3-3-3--3-3-3-3-3-3-3-|
--2-2-2--2-2--1-1-1--1-1--3-3-3-0-0-0--2-2-2-2-2-2-2-| (Crescendo)
------4--4-4--0-0-0--0-0--3-3-5-2-2-2--0-0-0-0-0-0-0-|
--------------2-2-2--2-2--5-5-5-0-0-0----------------|
--------------2-2-2--2-2--5-5-5----------------------|



Chorus:

--3-3-5-5--2-2-2-2-2--3-3-5-5--2-2-2-2-2--|
--3-3-5-5--3-3-3-3-3--3-3-5-5--3-3-3-1-1--|
--4-4-6-6--2-2-2-2-2--4-4-6-6--2-2-2-2-2--|
--5-5-7-7--0-0-0-4-4--5-5-7-7--0-0-0-0-0--|
--5-5-7-7-------------5-5-7-7-------------|
--5-5-7-7-------------5-5-7-7-------------|

--3-3------2-2-2-2-2--|
--3-3-3-3--3-3-3-3-3--|
--4-4-4-4--4-4-4-2-2--|
--5-5-3-3--4-4-4-0-0--|
--5-5-4-4--2-2-2-0-0--|
--5-5-----------------|

----------------|
----------------|
--1----1/3------| x2
---------4---2--|
--1-4----4------|
----------------|



Interlude:

-----------------------------------------|
-----------------------------------------|
-----------------------------------------|
-----4---------4--2--0--0----4--2--0--0--|
--0------0--------2-----0--0-------------|
--0--4------6----------------4--------5--|



Solo: (Taken from the live version at madison sq. Garden version)


----------------------------------------------------------------------------------------------|
----------------------------------------------------------------------------------------------|
----------------9/11/9-9p7---7--7-7h9-7-------------------------------------11-9--7------9-9--|
--------------7------------9----7-7---7--------------0-0-1212-1111/9-/7-6-----------6--9------|
----5-5^7^5-9-----------------------------5-5-5^7^5-5-----------------------------------------|
--0-------------------------------------------------------------------------------------------|

-----------------------|
-----------------------|
--12^14-11/9/7---7-----|
---------------9---6^9-|
-----------------------|
-----------------------|



Bridge: (Finger-picking)

--------------3--2----|
--3-----------3--3----|
--2---1----4--3--2----|
--4---0----5--2--0----|
--2---2----5----------|
------2----5----------|

--------------3--2-X--|
--3-----------2--3-X--|
--2---1----4--3--2-X--|
--4---0----5--2--0-X--|
--2---2----5--0-------|
------2----5----------|



Final Chorus:

--0-0-2-2-2--0-0-0-0-0--0-0-2-2-2--0-0-0-0-0---4-4-4--0-0-0---|
--2-2-4-4-4--0-0-0-0-0--2-2-4-4-4--0-0-0-0-0---4-4-4--0-0-0---|
--1-1-4-4-4--1-1-1-1-1--2-2-4-4-4--1-1-1-1-1---5-5-5--1-1-1---|
--2-2-4-4-4--2-2-2-2-2--2-2-4-4-4--2-2-0-0-0---4-4-4--2-2-2---|
--0-0-2-2-2--2-2-4-4-4--0-0-2-2-2--2-2-2-2-2---6-6-6--4-4-2---|
-------------2-2-------------------2-2-2-2-2---6-6-6----------|


----------------|
----------------|
--1----1/3------| x2
---------4---2--|
--1-4----4------|
----------------|

---------------0---------------|
---------2------------2------2-|
--1-1------1-----1------1----1-|
------2------2-----2------2--2-|
-------------------------------|
-------------------------------|

-------------------|
-------------------|
--1----1/3---------|
---------4---2-----|
--1-4----4------0--|
-------------------|

------------------3--x--|
------------------3--x--|
--1----1/3--------3--x--|
---------4---2----2--x--|
--1-4----4--------1--x--|
------------------------|



Outro: (Same as Intro)

--------------------------------------------------|
--------------------------------------------------|
--------------------------------------------------|
-----4---------4--2--0--0----4---------4--2--0--0-|
--0------0--------2-----0--0-----0--------2-----0-|
--0--4------6----------------4------6-------------|

-----------------------------------------2----0----0----|
-----------------------------------------2----1----0----|
-----------------------------------------3----2----1----|
-----4---------4-----0------4-2--0--0----2----2----2----|
--0------0--------7-------1---1-----0----4----0----2----|
-----4------6-----6-----5----------------4---------2----|
                                                   Let ring             
Tap to rate this tab
# A B C D E F G H I J K L M N O P Q R S T U V W X Y Z