Song name
# A B C D E F G H I J K L M N O P Q R S T U V W X Y Z

Michael Buble - Some Kind Of Wonderful tab

    ______________________________
   / Michael Bublé               /  Here are the chords to The Drifters' wonderful
  / Some Kind of Wonderful      /  hit from 1961. This is actually another hit song
 / Crazy Love (Deluxe Edition) /  written by Carole King. Enjoy!
/_____________________________/


Intro:
 drums
+=-=-=-=-+=-=-=-=-+=-=-=-=-+=-=-=-=-+


Verse:
 E        E        C#m      C#m      A        A        B        B
+=-=-=-=-+=-=-=-=-+=-=-=-=-+=-=-=-=-+=-=-=-=-+=-=-=-=-+=-=-=-=-+=-=-=-=-+
"All you have to do is touch my hand...

 E        E        C#m      C#m      A        A        B        B
+=-=-=-=-+=-=-=-=-+=-=-=-=-+=-=-=-=-+=-=-=-=-+=-=-=-=-+=-=-=-=-+=-=-=-=-+
"Now, every time my little world seems blue...


Chorus:
 E        E        B        B        E        E7       A        B,break
+=-=-=-=-+=-=-=-=-+=-=-=-=-+=-=-=-=-+=-=-=-=-+=-=-=-=-+=-=-=-=-+=-=-=-=-+
"I know, I can't express...


Verse:
 E        E        C#m      C#m      A        A        B        B
+=-=-=-=-+=-=-=-=-+=-=-=-=-+=-=-=-=-+=-=-=-=-+=-=-=-=-+=-=-=-=-+=-=-=-=-+
"I only know when I'm in your embrace...


Theme:
 E        E        C#m      C#m      A        A        B        B
+=-=-=-=-+=-=-=-=-+=-=-=-=-+=-=-=-=-+=-=-=-=-+=-=-=-=-+=-=-=-=-+=-=-=-=-+

    E                               C#m
   |12---11-11---9-|9--------------|---------------|---------------|
   |---------------|----9-9--7-----|7h9------------|---------------|
   |---------------|------------9--|---------------|---------------|
   |(2----1--1-----|---------------|---------------|---------------|
   |-------------4-|4--------------|---------------|---------------|
   |---------------|----4-4--2--0--|2h4)-----------|---------------|

    A                               B
   |5-----4-4---2--|2--------------|---------------|---------------|
   |---------------|------------2--|4--------------|---------------|
   |---------------|---2--2--4-----|---------------|---------------|
   |---------------|---------------|---------------|---------------|
   |---------------|---------------|---------------|---------------|
   |---------------|---------------|---------------|---------------|


Verse:
 E        E        C#m      C#m      A        A        B        B
+=-=-=-=-+=-=-=-=-+=-=-=-=-+=-=-=-=-+=-=-=-=-+=-=-=-=-+=-=-=-=-+=-=-=-=-+
"It's wonderful, baby...


Chorus:
 E        E        B        B        E        E7       A        B,break
+=-=-=-=-+=-=-=-=-+=-=-=-=-+=-=-=-=-+=-=-=-=-+=-=-=-=-+=-=-=-=-+=-=-=-=-+
"I know, I can't express...


Verse:
 E        E        C#m      C#m      A        A        B        B
+=-=-=-=-+=-=-=-=-+=-=-=-=-+=-=-=-=-+=-=-=-=-+=-=-=-=-+=-=-=-=-+=-=-=-=-+
"I only know when I'm in your embrace...


Outro:
 E        E        C#m      C#m      E        E        C#m      C#m
+=-=-=-=-+=-=-=-=-+=-=-=-=-+=-=-=-=-+=-=-=-=-+=-=-=-=-+=-=-=-=-+=-=-=-=-+
"And it's wonderful, baby...

(Theme joins in from here, plus the low guitar part.)
 E        E        C#m      C#m      E        E        C#m      C#m
+=-=-=-=-+=-=-=-=-+=-=-=-=-+=-=-=-=-+=-=-=-=-+=-=-=-=-+=-=-=-=-+=-=-=-=-+
"Ba-by, ba-by, ba-by, baby, please...

 E        E        C#m      C#m      E        E        C#m      C#m      E(add2)
+=-=-=-=-+=-=-=-=-+=-=-=-=-+=-=-=-=-+=-=-=-=-+=-=-=-=-+=-=-=-=-+=-=-=-=-+=...
"Ba-by, ba-by, ba-by, baby, please...




Throughout the entire song, a clean electric guitar (panned all right)
strums these chords staccato on beats 2 and 4 (along with the snare drum):
        E    C#m    A     B     E7
  e:----4-----4-----5-----7-----4----:
  B:----5-----5-----5-----7-----3----:
  G:----4-----6-----6-----8-----4----:
  D:---------------------------------:
  A:---------------------------------:
  E:---------------------------------:


+--------------------------------------------------------------------------+
Jon Sebastian Frederiksen - 25th /March /13
Just mail me at Maitinin@gmail.com with questions, comments and corrections!
Tap to rate this tab
 
# A B C D E F G H I J K L M N O P Q R S T U V W X Y Z