Song name
# A B C D E F G H I J K L M N O P Q R S T U V W X Y Z

Michael Buble - Everything tab

Everything Tabs
Song by Michael Buble
Played by Tomi Paldanius
Tabbed by Lyle Kam

CHECK OUT MY CHANNEL: http://www.youtube.com/channel/UCbHcILQFoDJE-8IdX2d4MuA
EVERY VIEW HELPS!

Standard Tuning.


E-------- ---------------------3-----------------------------------------|
A-0-------2---------------------------------------------2 ---------------|
D------------------------------------------0-----------------------------|
G-2------------2--1---------------------------0---------------2--1-------|
B----------------------------------3---3----------3----------------------|
e-------3---------------2------0-----------------------------------------|

E-----------3-------------------------------------|
A--------------------------------------2----------|
D--------------------------0----------------------|
G-----------------------------0-------------------|
B------------------3---3----------3---------------|
e-----2-----0-------------------------------------|


E-------- --------------3-----------------3------------------------|
A-------------------------------------0----------------------------|
D------------------------------------------------------------------|
G----2--1-----------------------------0----------------------------|
B-------------------------------3---------0-----------------3------|
e------------------2----0-------------------------2---0------------|

E-----------------------------------------------------|
A-------------0---------------------------------2-----|
D-------------------------------------0---------------|
G------------------------------------------0----------|
B---2/3------3------------------3---------------------|
e------------------2---0---0--------------------------|

E-------------------------------------------------------3-------------|
A---------------------------------------------------------------------|
D--------------------2------------------------------------------------|
G---------------------------------------------------------------------|
B--------------3--------------------------3p0--3----------------------|
e-2--0--0----------0------2--0--0------------------------2--0---------|

E---------------------------------------------------------------------3-|
A-----------------------------2------------------------0----------------|
D-----------0-----------------------------------------------------------|
G-----------------------------------0-----------------------------------|
B-----3-----------------------------------------------------------------|
e-0--------------2--0--0-----------------2--0--0--------2--0---0--------|


E---------------------------------------------------------------------------|
A-----------------------0-----------------------2---------------------0-----|
D---------------------------------------------------------------------------|
G-----------------------------2----------------------2----------------------|
B-3------------2/3---3---------1-1/3--3--3----------1---3-3-----------------|
e-----2--0------------------------------------------------------------2-----|

E--------------------3------------------------------------|
A---------------------------------------------------------|
D------------------------------------------------0-0-0----|
G---2----------------------2------------2-----------------|
B----------1--3----3--0-------3-3-0---------3-3-3---------|
e---------------------------------------------------------|


E-------------------------------------------------3------------3--3--3--------------|
A-----------------------2-----------------------------------------------------------|
D--------------------------0-2-2----2---0-4-------2--0--0--4---2--2--0--------------|
G-2------------2------------------------------2-----------------------------2--2----|
B------1--3--------1----------------------------------------------------------3--3--|
e-----------------------------------------------------------------------------------|

E---------------3-------------------------------------|
A------------------------------------------------2----|
D---0--4--------0--------0----0-----0-----------------|
G-----------2---2--------2----2---------2----------4--|
B-----------------------------3---------3----------3--|
e-----------------------------------------------------|

E-3------------------------------3----------2-----------------------------|
A----------------------------------2----------4---2-----------------------|
D--------0-0--0-------0---------------------------4---4-------------------|
G--------2-2----2-------2--------------3--------- 4------1/2--4-----------|
B-2------3-3-----3--------3-0---------------------------------------------|
e------------------2-0----------------------------------------------------|

E-3---------------------------------3----------2------------------------------|
A---------------------------------------2----------4---2----------------------|
D--------0-0--0-------0-------------------------------4---4-------------------|
G--------2-2----2-------2-----------------3--------- 4--------1/2----4--------|
B-2------3-3-----3--------3-0-------------------------------------------------|
e--------------------2-0------------------------------------------------------|

E-------------------------3-----------|
A--2----------------------------------|
D--2---4------------------0-----------|
G-----------1/2-----4-----------------|
B-------------------------------------|
e-------------------------------------|

E-----------------------------------|
A-----------------------------------|
D----2--2--0------0-0-0-4-----------|
G--------------------------2--------|
B-----------------------------------|
e------------------------------2-0--|

E---------------------xx--xx---3-3----------------------------------------------------|
A---------------------xx--xx---5-5--------------------------0h2-5-5-------------------|
D-----------------5---xx--xx---5-5--------------------0-------------------------------|
G--------5------------xx--xx---4-4--4------2------2---2----------------7-7/6-6-4-4-1--|
B-5p3---------5-------xx--xx---3-3-----5-3-----4------3-------------------------------|
e---------------------xx--xx---3-3----------------------------------------------------|

E------3-------------------------------------------7------------|
A-------------0-------------------------------------------------|
D-----------------0----0--0--------0-------------------6----5/6-|
G-------------0--------------------2--2-----2/7-------------6/7-|
B---------3--------------------3---3----3-----------------------|
e-2----0---------------2--5--------2------2---------------------|


E-3-----3-3----------------------------7-----------------3-----3---------|
A-------------------------0h2-5-5-------6--------------------------------|
D-------2-2-0---0-0--------------------------5/6---------------2-2-0-----|(let it ring)
G---------------2-2--------------------------6/7-------------------------|
B-------------- 3-3------------------------------------------------------|
e------------------------------------------------------------------------|
Tap to rate this tab
# A B C D E F G H I J K L M N O P Q R S T U V W X Y Z