Song name
# A B C D E F G H I J K L M N O P Q R S T U V W X Y Z

Michael Buble - Feeling Good tab

-------------------------------------------------------------------------------
			     SONG NAME - Band Name
-------------------------------------------------------------------------------
Tabbed by: Celine Nguyen

This is pretty much played through the entire song


       Cm             Bb           G#              Gm7 
e|-----(3)----------------------------------------------------------|
B|------4--------------3----------------------------3------3--------|
G|------5--------------3--------------5-------------3------3--------|
D|------5--------------3--------------6-------------3------3--------|
A|--3-------3------1-------1----------6---------3-------3-----------|
E|------------------------------ -4-------4-------------------------|
Tap to rate this tab
 
# A B C D E F G H I J K L M N O P Q R S T U V W X Y Z