Guitaretab - guitar tabs
Song name
# A B C D E F G H I J K L M N O P Q R S T U V W X Y Z

Michael Buble - Way You Look Tonight tab

02:36  03:12

e]--------------------------------------------------------------------|
B]--------------------------------------------------------------------|
G]------121212---14/16-------------912/13---131313---15/17-----------|
D]--6/8-----------------8/10-----10--------------------------14-15-17-|
A]--------------------------------------------------------------------|
E]--------------------------------------------------------------------|


e]--------------------------------------------------------------------|
B]14-14-14-18----------------------16/18-181818-20-------------------|
G]--------------15-17-18-17-15-17-------------------15---------------|
D]--------------------------------------------------------------------|
A]--------------------------------------------------------------------|
E]--------------------------------------------------------------------|

[ Tab from: http://www.guitaretab.com/m/michael-buble/60707.html ]
e]----------------------------------------------------------|
B]----------------------------------------------------------|
G]-15-17---18-17-18-17-18-17-18-17-17/15--------13-15-------|
D]-------------------------------------------13-------------|
A]----------------------------------------------------------|
E]----------------------------------------------------------|

e]----------------------------------------------------------------|
B]----------------------------------------------------------------|
G]-17-15-17-15-17-15-17--20/16------------------------------------|
D]----------------------------13---13/1717-17-18~--18-18-20------|
A]----------------------------------------------------------------|
E]----------------------------------------------------------------|


e]----------------------------------------------------------------|
B]--------17-17-15-13-15-13-10------------------------------------|
G]-12/15-----------------------11---------------------------------|
D]----------------------------------------------------------------|
A]----------------------------------------------------------------|
E]----------------------------------------------------------------|


Josh Hardy
sk8er_dude_josh_372@hotmail.com
Related for Way You Look Tonight tab