Song name
# A B C D E F G H I J K L M N O P Q R S T U V W X Y Z

Michael Chapman - Faheys Flag tab

FAHEYS FLAG by MICHAEL CHAPMAN

Open G tuning. A slide is used throughout most of the piece,
mostly across all strings but in section 4 it is just
used on the highest string - except for the intro where
you lightly touch the strings with your finger to make
them 'ring', and the last half of section 3.
It's probably best if you listen to Faheys Flag to get the
feel of the music.

The correct order is:
INTRO
SECTION1
SECTION2
SECTION1
SECTION2
SECTION3
SECTION4
SECTION2
SECTION1 (fast)
SECTION2 (fast)
SECTION3
ENDING


NOTE1 - these notes are approximate. What you are doing is sliding
slowly down the frets while playing the strings.

NOTE2 - use your fingers on the frets on this bit.

NOTE3 - use the slide just on the highest string.

INTRO
|D|--12----------------------|--7-----------------------|--5-----------------------|
|B|--12----------------------|--7-----------------------|--5-----------------------|
|G|--12----------------------|--7-----------------------|--5-----------------------|
|D|--12----------------------|--7-----------------------|--5-----------------------|
|G|--12----------------------|--7-----------------------|--5-----------------------|
|D|--12----------------------|--7-----------------------|--5-----------------------|


SECTION1
|--9-------12--------------|-11-------11--------------|
|----------------12--------|----------------11--------|
|--------------------------|--------------------------|
|--------9----------12-----|-------11----------11-----|
|--9----------12-----------|-11----------11-----------|
|--------------------------|--------------------------|

|--9-------12--------------|--8--------8--------------|
|----------------12--------|-----------------8--------|
|--------------------------|--------------------------|
|-------9-----------12-----|--------8-----------8-----|
|--9----------12-----------|--8-----------8-----------|
|--------------------------|--------------------------|

|--9-------12--------------|-11-------11--------------|
|----------------12--------|----------------11--------|
|--------------------------|--------------------------|
|--------9----------12-----|-------11----------11-----|
|--9----------12-----------|-11----------11-----------|
|--------------------------|--------------------------|

|--9-------12--------------|--8--------8--------------|
|----------------12--------|-----------------8--------|
|--------------------------|--------------------------|
|--------9----------12-----|--------8-----------8-----|
|--9----------12-----------|--8-----------8-----------|
|--------------------------|--------------------------|

|--8----------10-----8-----|--7--------7--------------|
|-----8--------------------|-----------------7--------|
|--------------------------|--------------------------|
|--------8-----------------|--------7-----------7-----|
|--8----------10-----8-----|--7-----------7-----------|
|--------------------------|--------------------------|

|--7-----------------------|
|-----7--------------------|
|--------------------------|
|--------7-----------------|
|--7-----------7-----6\----|
|--------------------------|



SECTION2
|-/5--------5--------------|
|-----------------5--------|
|--------------------------|
|--------5-----------5-----|
|-/5-----------5-----------|
|--------------------------|

|--8--------8--------------|-10-------10--------------|
|-----------------8--------|----------------10--------|
|--------------------------|--------------------------|
|--------8-----------------|-------10----------10-----|
|--8-----------8-----8-----|-10----------10-----------|
|--------------------------|--------------------------|

|--9----12-----------9-----|--7--------9--------------|
|----------12--------------|-----------------9--------|
|--------------------------|--------------------------|
|-------------12-----------|--------7-----------9\----|
|--9----12-----------9-----|--7-----------9-----------|
|--------------------------|--------------------------|

|-/5--------5--------------|--8--------8--------------|
|-----------------5--------|-----------------8--------|
|--------------------------|--------------------------|
|--------5-----------------|--------8-----------8-----|
|-/5-----------5-----5-----|--8-----------8-----------|
|--------------------------|--------------------------|

|-10-------10--------------|--9----12-----------9-----|
|----------------10--------|----------12--------------|
|--------------------------|--------------------------|
|-------10-----------------|--------------------------|
|-10----------10----10-----|--9----12----12-----9-----|
|--------------------------|--------------------------|

|--7-----------------------|--9----12-----------9-----|
|-----------9-----9--------|----------12--------------|
|--------------------------|--------------------------|
|--------7-----------9\----|--------------------------|
|--7-----------9-----------|--9----12----12-----9-----|
|--------------------------|--------------------------|

|--7-----------------------|
|-----------9-----9--------|
|--------------------------|
|--------7-----------9-----|
|--7-----------9-----------|
|--------------------------|



SECTION3
|--9----12----11-----------|--9--------8--------------|
|-------------------10-----|-----------------7--------|
|--------------------------|--------------------------|
|----------12----------10--|--------9-----------7-----|
|--9----12-------11--------|--9-----------8-----------|
|--------------------------|--------------------------|
NOTE1

|--6--------5--------------|--3--------2--------------|
|-----------------4--------|-----------------2--------|
|--------------------------|--------------------------|
|--------6-----------4-----|--------3-----------1-----|
|--6----------5------------|--3-----------2-----------|
|--------------------------|--------------------------|

|--1--------1--------------|--------------------------|
|-----------------0--------|-----------0-----------0--|
|--------------------------|-----0-----------0--------|
|--------1-----------0-----|--------0-----------0-----|
|--1-----------0-----------|--0-----------0-----------|
|--------------------------|--------------------------|

|--------------------------|--------------------------|
|-----------1-----------1--|-----------3-----------3--|
|-----0-----------0--------|-----0-----------0--------|
|--------2-----------2-----|--------4-----------4-----|
|--0-----------0-----------|--0-----------0-----------|
|--------------------------|--------------------------|
NOTE2

|--------------------------|--------------------------|
|-----------1-----------1--|-----------3-----------3--|
|-----0-----------0--------|-----0-----------0--------|
|--------2-----------2-----|--------4-----------4-----|
|--0-----------0-----------|--0-----------0-----------|
|--------------------------|--------------------------|

|--------------------------|--------------------------|
|-----------1-----------1--|-----------0--------------|
|-----0-----------0--------|-----0--------------------|
|--------2-----------2-----|--------0-----------------|
|--0-----------0-----------|--0-----------------------|
|--------------------------|--------------0-----3-----|

|--------------------------|--------------------------|
|-----------0--------------|-----------0--------------|
|-----0--------------------|-----0--------------------|
|--------0-----------------|--------0-----------------|
|--0-----------------------|--0-----------------------|
|--------------0-----3-----|--------------0-----3-----|



SECTION4
|-----5-----5-----5--7-----|-----9-----9-----9-10-----|
|--------------------------|--------------------------|
|--------------------------|--------------------------|
|--------0-----------0-----|--------0-----------0-----|
|-----0--------0-----------|-----0--------0-----------|
|--------------------------|--------------------------|
NOTE3

|----12----12----12-14-----|----12-----0--------------|
|--------------------------|-----------------0--------|
|--------------------------|--------------------------|
|--------0-----------0-----|--------0-----------0-----|
|-----0--------0-----------|-----0--------0-----------|
|--------------------------|--------------------------|

|-----5-----5-----5--7-----|-----9-----9-----9-10-----|
|--------------------------|--------------------------|
|--------------------------|--------------------------|
|--------0-----------0-----|--------0-----------0-----|
|-----0--------0-----------|-----0--------0-----------|
|--------------------------|--------------------------|

|----12----12----12-14-----|----12-----0--------------|
|--------------------------|-----------------0--------|
|--------------------------|--------------------------|
|--------0-----------0-----|--------0-----------0-----|
|-----0--------0-----------|-----0--------0-----------|
|--------------------------|--------------------------|

|-----5-----5-----5--7-----|-----9-----9-----9-10-----|
|--------------------------|--------------------------|
|--------------------------|--------------------------|
|--------0-----------0-----|--------0-----------0-----|
|-----0--------0-----------|-----0--------0-----------|
|--------------------------|--------------------------|

|----12----12----12-14-----|----12----12-10--9-10-----|
|--------------------------|--------------------------|
|--------------------------|--------------------------|
|--------0-----------0-----|--------0--------0--------|
|-----0--------0-----------|-----0--------0-----0-----|
|--------------------------|--------------------------|

|-------10--9--7--5--------|--------------------------|
|--------------------------|--------------------------|
|--------------------------|--------------------------|
|-----0--------0-----------|--------------------------|
|-----------0-----0--------|-----0-----2-----4--------|
|--------------------------|--------------------------|



ENDING
|--------------5-----|
|--------------0-----|
|--------------0-----|
|--------------0-----|
|--0-----0-----0-----|
|--------------0-----|
Tap to rate this tab
 
# A B C D E F G H I J K L M N O P Q R S T U V W X Y Z