Song name
# A B C D E F G H I J K L M N O P Q R S T U V W X Y Z

Michael Davis - Allways Watching tab

Help us improve GuitareTab! Take a short survey!
i made this song up this is the intro to it it sounds good to me
it would help to keep your fingering positions as the c chord



 |---------0---------------0-------|  
 |-------1---1-----------1---1-----|  
 |-----2-------2-------2-------2---|  
 |---2-----------2---2-----------2-|  
 |-0---------------0---------------|  
 |---------------------------------|  
                                      
 |---------0---------------0-------|  
 |-------1---1-----------1---1-----|  
 |-----0-------0-------0-------0---|  
 |---2-----------2---2-----------2-|  
 |-1---------------1---------------|  
 |---------------------------------|  

 repete this twice and then repete the first part 3 times but on the third slow down
Related for Allways Watching tab