Guitaretab - guitar tabs
Song name
# A B C D E F G H I J K L M N O P Q R S T U V W X Y Z

Michael English - The Maker Of The Road tab

The Maker of The Road by. Michael English tabbed by Lou. M of Chozen Hazard

Listen to the song for the Strumming Pattern
The Intro:


Intro: E------- 8---6----------------------------------10-----8-----6----|
       B-6~---6---6---------Repeat--x3-----then--------------------------|
       G-----------------------------------------------------------------|
       D-----------------------------------------------------------------|
       A-----------------------------------------------------------------|
       E-----------------------------------------------------------------|
Verse: Lead Guitar/w/ echo:    Repeat once after each chord is played
       E------- 8---6----------------------------------10-----8-----6--|x2
       B-6~---6---6---------Repeat--x3-----then------------------------|
       G---------------------------------------------------------------|
       D---------------------------------------------------------------|
       A---------------------------------------------------------------|
       E---------------------------------------------------------------|
Play this after  the last chord is strummed
[ Tab from: http://www.guitaretab.com/m/michael-english/106730.html ]
       Rythmn Guitar: Strum each chord once
       E-----------------------------------------------------------------|x2
       B-----------------------------------------------------------------|
       G-----------------------------------------------------------------|
       D---8----8----6----5----------------------------------------------|
       A---8----8----6----5----------------------------------------------|
       E---6----5----4----3----------------------------------------------|

Pre-Chorus:

       Both Guitars:
       E----------------------|
       B----------------------|
       G----------------------|
       D--4-------------6-----|
       A--4-------------6-----|
       E--2-------------4-----|
        Lose My...     direction..
        turn my eyes...  up to heaven...

Chorus:
Both Guitars:

      E--------------------------------------------|x2
      B--------------------------------------------|
      G--6--x8-------------------------------------|
      D--6--------6--x8-----4-4-x-x-x-x---x4-------|
      A--4--------6---------4-4-x-x-x-x------------|
      E-----------4---------2-2-x-x-x-x------------|

Post Chorus:
Both Guitars:
      E-------------------------------------------------|x2
      B-------------------------------------------------|
      G--------x4----x4---------------------------------|
      D------6-----8------4-----------------------------|
      A------6-----8------4-----------------------------|
      E------4-----6------2-----------------------------|

Step by Step-Part- Rythmn- Quietly strum each chorus chord once behind this solo
      E-------------------------------------------------|x2
      B---4-4--2-2--4--4/6-4--5/6-6/7-7/9-9/11---12*----|
      G-------------------------------------------------|
      D-------------------------------------------------|
      A-------------------------------------------------|
      E-------------------------------------------------|

Order of Song:
Intro
Verse
Pre-Chorus
Chorus
Post Chorus
Verse
Pre-Chorus
Chorus
Post Chorus
Bridge(Step by Step)
Chorus(x4)
Pre-Chorus
Related for The Maker Of The Road tab
Advertisement will be closed in 10 seconds