Song name
# A B C D E F G H I J K L M N O P Q R S T U V W X Y Z

Michael Fath - Bouree tab

				      BOUREE
                          As recorded by Steve Hackett
                         (From the 1987 Album MOMENTUM)


Music by Bach
Arranged by Steve Hackett


  
|-0-2-|-3-2-0---0-2-|-------0-----|-------------|-------------0-2-|--|
|-----|-------4-----|-0-2-4---3-1-|-0-----------|-0---------------|--|
|-----|-------------|-------------|---2-0---0-2-|---2-0-----------|--|
|-----|-------------|-------------|-------4-----|-------4-2-------|--|
|-----|---0---2-0---|-------------|---0---2-0---|-----2-----------|--|
|-3-2-|-0-----------|-3-2---0-2---|-3-----------|-3-------0-2-3-2-|--|


  
|-3-2-0---0-2-|-------0-----|-------------|---|--0-2-3-2-0---0-2-|-------0-----|
|-------4-----|-0-2-4---3-1-|-0-----------|---|------------4-----|-0-2-4---3-1-|
|-------------|-------------|---2-0-----0-|-0-|------------------|-------------|
|-------------|-------------|-------4-----|-0-|------------------|-------------|
|---0---2-0---|-------------|---3---5-5---|-2-|--------0---2-0---|-------------|
|-0-----------|-3-2---0-2---|-3-----------|-3-|--3-2-0-----------|-3-2---0-2---|


  
|-----------------|---------0-2-|-3-2-0---0-2-----|---0-------------|--------||
|-0-----------0---|-------------|-------4-----0-2-|-4---3-1-0-------|-------o||
|---2-0---0-2---2-|-0-----------|-----------------|-----------2-0---|---0-0--||
|-------4---------|---4-2-------|-----------------|---------------4-|-----0--||
|---0---2-0-------|-2-----------|---0---2-0-------|-----------3---5-|-5---2-o||
|-3-----------3---|-----0-2-3-2-|-0-----------3-2-|---0-2---3-------|-----3--||



  2 Volte / 2 Times
  
||------|---------3---|-0-----------|-------------|---------------|---3-|
||o-0---|-3---1-0---3-|---0-3-1-0---|-----0-1-0---|-----------3---|-0---|
||----0-|---2---------|-----------2-|-1-2-------2-|-2-----------2-|-----|
||------|---0---------|---------0---|-2-----2-----|-----------0---|-----|
||o-----|---------2---|-3-----0-----|---0---------|-0-2-0---------|---2-|
||--3---|-2-----3-----|---4---------|---------0---|-------3-2-----|-3---|


 
|---0-----|---5-------0-|-------------|-----------7---|-4-2-0-5-0-3-|-2-|
|-3---0-3-|-1---5-7-2---|-3-2-0-----0-|-0-----------7-|-------------|---|
|---------|-------------|-------3-----|---------------|-------------|---|
|---------|-------0-----|---2---4-----|---------------|-2-0---------|-0-|
|---3-4---|-0-4-----1---|-2-----------|-2-1-2-4-6-----|-------4-0---|---|
|---------|-------------|---------2---|-----------7---|-------------|---|


  
|-0---3---1-|-0-5-0-2---0-|-----------0---|-----------------|-----------|
|---3---3---|---------2---|-4-0---------0-|-1---3---0---1---|-----------|
|-----------|-------------|---------------|-------2-------0-|-2---4-----|
|-----------|-------------|---------------|---2-4-----1-2---|-------4-5-|
|-3---2-----|-3-2---0-----|-2---3-2-0-----|-0---------------|---4-6-----|
|-------3---|---------2---|-----------4---|---------3-------|-2-------0-|


 
|-----|-------------|----||----|
|-----|-------------|---o||----|
|-----|-------0-----|----||----|
|-4-2-|-1-2-4---4-2-|-2--||----|
|-0---|-2-0---2-----|---o||----|
|-----|-------------|-0--||----|
*****
Tap to rate this tab
# A B C D E F G H I J K L M N O P Q R S T U V W X Y Z