Guitaretab - guitar tabs
Song name
# A B C D E F G H I J K L M N O P Q R S T U V W X Y Z

Michael Franti And Spearhead - Obama Song tab

This is a really catchy tune about the 44th president of the USA, It's real simple. Hope 
enjoy the song!

E|-6-6-6-8--8--6-6-|
B|-6-8-8-10-10-8-8-|
G|-7-8-8-10-10-8-8-| Verse/Chorus Guitar Part
D|-8-8-8-10-10-8-8-|
A|-8-6-6-8--8--6-6-|
E|-6---------------|

  Bb  Eb   F   Eb
[ Tab from: http://www.guitaretab.com/m/michael-franti-and-spearhead/177088.html ]
This is basically the whole song, but I haven't learned the bridge yet, but i think it 
like this -

E|-6-6-6-6-6-6-|
B|-7-7-7-7-7-7-|
G|-8-8-8-8-8-8-|
D|-8-8-8-8-8-8-| Bridge
A|-6-6-6-6-6-6-|
E|-------------|
      Ebm

It's a very simple and catchy song, hope you all enjoy it.
Related for Obama Song tab
Advertisement will be closed in 10 seconds