Song name
# A B C D E F G H I J K L M N O P Q R S T U V W X Y Z

Michael Franti And Spearhead - Yell Fire tab

Michael Franti and Spearhead
Yell Fire

This song has more of a rock vibe than some of his other tunes.  Check out some of his 
stuff on youtube.  Repeat the sections as neccesary, and halfway through the verse, add 
intro riff.

intro

e|--------------------------------5-----------------------------------------|
B|----------------------------3/5-------------------------------------------|
G|----2--0--2-------2--2p0-0------------2-0-2----2---2p0--0-----------------|
D|----2--0--2-------2--2p0-0------------2-0-2----2---2p0--0------0----------|
A|-----------------------------------------------------------0h2------------|
E|--------------------------------------------------------------------------|

chorus  (the lead guitarist is using 16th note string mutes with a wah effect)
e|---------------------------------------------------------------------------|
B|---------------------------------------------------------------------------|
G|--2---4---6----------------6---4---2---------------------------------------|
D|--2---5---7----------------7---5---2---------------------------------------|
A|---------------------------------------------------------------------------|
E|---------------------------------------------------------------------------|

For the verse, just strum an A barre chord with the classic reggae rythm.

Bridge
e|--------------------------------------------------------------------------|
B|--------------------------------------------------------------------------|
G|--7----5------------------------------------------------------------------|
D|--7----5------------8------5----------------------------------------------|
A|--5----3------------8------5----------------------------------------------|
E|--------------------6------3----------------------------------------------|

enjoy!
Tap to rate this tab
 
# A B C D E F G H I J K L M N O P Q R S T U V W X Y Z