Song name
# A B C D E F G H I J K L M N O P Q R S T U V W X Y Z

Michael Giacchino - Roar tab

this is from the song during the credits
i basically just tabbed the recurring hook (usually done with wind and string instruments)
sounds sick with some distortion (kinda like the awesome movie)
enjoy!


e|-----------------------------------------------------|
B|-----------------------------------------------------|
G|-----------------------------------------------------|
D|-----------------------------------------------------|
A|------1-0-1------------1-0-1-------1-0-1---3-3-1-0-1-|
E|--3-3--------------3-3----------3-3------------------|

e|-----------------------------------------------------|
B|-----------------------------------------------------|
G|-----------------------------------------------------|
D|-----------------------------------------------------|
A|------3------3------3-3-6-6-3--------1-0-1-----------|
E|--4-4----4-4----4-4--------------3-3-----------------|
Tap to rate this tab
# A B C D E F G H I J K L M N O P Q R S T U V W X Y Z