Song name
# A B C D E F G H I J K L M N O P Q R S T U V W X Y Z

Michael Giacchino - Life And Death tab

Tabbed by Ivan.
myspace.com/chingotumadre

I tabbed this on an acoustic guitar in Drop C Tuning. 

Tunning: Standard, Full Step Down, Drop C. Whatever.

Intro:
e|---------------------------------------------------------------------------|
B|-3--------3-----------3--------3------------3-------3----------------------|
G|-4--------4-----------4--------4------------5-------4----------------------|
D|-5--------4-----------5--------4------------5-------4----------------------|
A|-5--------2-----------5--------2------------5-------2----------------------|
E|---------------------------------------------------------------------------|

Play Slowly:
e|-------------------2--------------------------2--------------------------------|
B|-3----3---3-----3---3-------3----3---3-----3---3-------3---3--3----3-----------|
G|-4--4---4---4---4-----------4--4---4---4---4-----------5--5--5--5--4-----------|
D|-5--------------4-----------5--------------4-----------5-----------4-----------|
A|-5--------------2-----------5--------------2-----------5-----------2-----------|
E|-------------------------------------------------------------------------------|


I haven't been able to figure out the rest, i mean GTA 4. 
The rest should be different variations of the second part.


Michael Giacchino's official website
http://www.michaelgiacchino.com/

Tap to rate this tab
# A B C D E F G H I J K L M N O P Q R S T U V W X Y Z