Song name
# A B C D E F G H I J K L M N O P Q R S T U V W X Y Z

Michael Giacchino - Married Life Up Theme tab

http://www.youtube.com/watch?v=GI2fSoWm6Ho

first one contained some mistakes. there's the video for the tab, i only wrote 
down what i heard. credit for figuring it out goes to shakamaiden

e|-15-19-15----15-19-15----12-15-12-----------15-17------15-17---------|
b|---------19~---------17----------13~---13/15------13/15-----15h17p15-|
g|---------------------------------------------------------------------|
D|---------------------------------------------------------------------|
A|---------------------------------------------------------------------|
E|---------------------------------------------------------------------|

e|---------------------------------------------|
b|-15-17-15\12~--12-15-12\8~--8-10-8\6~--6-8-6-|
g|---------------------------------------------|
D|---------------------------------------------|
A|---------------------------------------------|
E|---------------------------------------------|

e|---------------------|
b|-5-6-8-10-12---5-6-8-|
g|---------------------|
D|---------------------|
A|---------------------|
E|---------------------|

e|-15-19-15----15-19-15----12-15-12-----------15-17------15-17----------|
b|---------19~---------17----------13~---13/15------13/15-----15h17p15~-|
g|----------------------------------------------------------------------|
D|----------------------------------------------------------------------|
A|----------------------------------------------------------------------|
E|----------------------------------------------------------------------|

e|---------------------------------------------|
b|-15-17-15\12~--12-15-12\8~--8-10-8\6~--6-8-6-|
g|---------------------------------------------|
D|---------------------------------------------|
A|---------------------------------------------|
E|---------------------------------------------|

e|--------------------------------------|
b|-5-6-8-10-12--6-8-10-12/15--13tr15-13~|
g|--------------------------------------|
D|--------------------------------------|
A|--------------------------------------|
E|--------------------------------------|


/ = slide up
\ = slide down
h = hammer on 
p = pull off
~ = vibrato
tr = trill
Tap to rate this tab
# A B C D E F G H I J K L M N O P Q R S T U V W X Y Z