Song name
# A B C D E F G H I J K L M N O P Q R S T U V W X Y Z

Michael Giacchino - Married Life Up Theme tab

-------------------------------------------------------------------------------
			     Michael Giacchino - Married Life (Disney: Up)
-------------------------------------------------------------------------------
Full version of tab can be found at Lickbyneck.com
Please note i did not compose this song myself, it was done by the people at lickbyneck.com

Tab submitted by Daniel Bell
Dublin, Ireland

This is only the end of the actual song, (the sad part) sounds really good!

Tuning: Normal

e|---------------7------------------------------------------------------------|
B|----------8----------8----------7------------------7------------------------|
G|--------------------------------7--------------7-------7--------------------|
D|--------------------------------9----------9--------------------------------|
A|--------------------------------10------------------------------------------|
E|----------------------------------------------------------------------------|

e|----------7------------0-----------0-----3-----0-----------------------------|
B|-----8---------7-------0--------0-------------------3-------------3----2-----|
G|-----------------------------0--------------------------------0--------------|
D|----------------------------------------------------------0------------------|
A|-----------------------------------------------------------------------------|
E|-----------------------3----------------------------3------------------------|

e|----7--------5------------5-------7------5-----------------------------------|
B|----5--------5--------6---------------------------------------8--------------|
G|----6-------------5------------------------------------6---------------------|
D|------------------------------------------------5----------------------------|
A|-----------------------------------------------------------------------------|
E|----0------------------------------------------------------------------------|

e|-----------------------------------------------------------------------------|
B|-----5-------------------5---------------------------------------------------|
G|-----6--------------6--------------------------------------------------------|
D|-----5--------5--------------------------------------------------------------|
A|-----0-----------------------------------------------------------------------|
E|-----------------------------------------------------------------------------|

e|--------------5--------------------------------------------------------------|
B|------8-------------8---------7--------------------7-------------------------|
G|---------------------------------------------5-------------------------------|
D|----------------------------------------7------------------------------------|
A|------------------------------5----------------------------------------------|
E|-----------------------------------------------------------------------------|

e|---------5-------------------------------------------------------------------|
B|----7---------7--------------------------7-----------------------------------|
G|----------------------7---------7---7--------7------5------------------------|
D|----------------------7------7----------------------4-------4----------------|
A|-----------------------------------------------------------------------------|
E|----------------------8-----------------------------5------------------------|

e|----------------------------0----2----------------------0-----2--------------|
B|----0------0-----1----3------------------3---------3-------------------------|
G|----0------0-----0----0------------------2-----------------------------------|
D|----2------2-----2----2------------------4-----------------------------------|
A|----3------------------------------------3-----------------------------------|
E|-----------------------------------------------------------------------------|

e|-----3------5------3--------2------3-----2-----------------------------------|
B|-------------------3--------3------3-----3----------3------------------------|
G|-------------------4--------4------4-----4----------4------------------------|
D|----------------------------------------------------5------------------------|
A|-----------------------------------------------------------------------------|
E|-------------------3--------3------3------3---------3------------------------|

Final part should be slow, listen to the song to figure out the timing!

Please rate :) Thanks :)


************************************

| /   slide up
| \   slide down
| h   hammer-on
| p   pull-off
| ~   vibrato
| +   harmonic
| x   Mute note
| b   Bend
| pb  Pre-bend
| br  Bend release
| pbr Pre-bend release
| brb Bend release bend
Tap to rate this tab
 
# A B C D E F G H I J K L M N O P Q R S T U V W X Y Z