Michael Gungor - Grace For Me tab

-----------------------------------------------------------------------------
			 Grace For Me - Michael Gungor Band
-----------------------------------------------------------------------------
Tabbed by : Omnigears 
Album     : Ancient Skies
Basically the song uses   
C#m A B E Abm 

Tuning: Standard
|          C#m           |           A          |            B
e|--------------------------------------------------------------------------|
B|-------5---5-------5---5-------2---2------2---2------4---4-----4---4------|
G|---------6-----------6-----------2----------2----------4---------4--------|
D|-----6-----------6-----------2----------2----------4---------4------------|
A|---4----------4------------0----------0----------2---------2--------------|
E|--------------------------------------------------------------------------|

|       E    |    Abm    |
e|--------------------------------------------------------------------------|
B|-------0---------4--------------------------------------------------------|
G|---------1---------4------------------------------------------------------|
D|-----2---------6----------------------------------------------------------|
A|---2---------6------------------------------------------------------------|
E|--------------------------------------------------------------------------|
Tap to rate this tab
 
# A B C D E F G H I J K L M N O P Q R S T U V W X Y Z