Song name
# A B C D E F G H I J K L M N O P Q R S T U V W X Y Z

Michael Gungor - Never Stop chords

Highlighted       Show chord diagrams
I've found that this song work best with power chords instead of full chords, but do 
what you want. It's a great worship song and I hope these tabs are good enough for your 
needs. God bless! :)

Main Riff:
|-------------------------------------------11-13-|
|-------------------13-13-13-14-14-14-------------|
|----------10-10-10-------------------11-11-------|
|-11-11-11----------------------------------------|
|-------------------------------------------------|
|-------------------------------------------------|

C#
Come on, come on all who are free
Bb
Love has redeemed you
F#m
Rise up and sing louder!
C#
Come on, come on
C#
If you believe
Bb
Love has redeemed you
F#m
Rise up and sing.

Chorus:
C#               Ab
I will never stop loving You
Eb                    F#m
You have never stopped loving me
C#                       Ab
There is nothing that the world can do
Eb
I will never stop
F#m
I will never stop

Come on, come on
Oh can’t you see
What we’ve been given
What we could be?
Come on, come on
If you believe
Love is redeeming,
Rise up and sing.

Chorus X2
C#                          C#m
Make it loud; make it louder ( repeat 3x)

Note: In this part, I usually do some artificial harmonic work on the chord 12 frets up. 
But, you can just strum the chord and let it ring (I've placed the chords in the best 
position to do this for my ears) or do some harmonic work of your own.

C#m
Sing it loud, live it louder! Louder!

Note: Chugging on this chord with a palm mute while getting louder sounds best to me.

Solo:
|-------------------------------------------|
|--------------------------------------11-9-|
|-8-10-8-10-8-10-11-10--8-10-8-10-8-10------|x2
|-------------------------------------------|
|-------------------------------------------|
|-------------------------------------------|

Chorus X2
Tap to rate this tab
# A B C D E F G H I J K L M N O P Q R S T U V W X Y Z