Song name
# A B C D E F G H I J K L M N O P Q R S T U V W X Y Z

Michael Husiak - Banned tab

Banned
Michael Husiak


h= hammer on
X= totally muted


Intro and Second Verse

E |------------------|--------------|
B |------------------|--------------|
G |----9-7--------7-9|----9-7---7-h9|
D |----------7-h9----|--------------|  Play Twice
A |--7-----7---------|--7-----7-----|
E |------------------|--------------|


1st and 3rd Verses (play once for each verse)

E |---------------------|-------------------------------|
B |---------------------|-------------------------------|
G |--9--9--9-9----------|--9--9--9-9-------------------7|
D |--9--9--9-9--7-------|--9--9--9-9-------------------7|
A |--7--7--7-7--7-------|--7--7--7-7-------------------5|
E |-------------5--8-7-7|-------------5-h7-5-h7-5-h7-5--|

E |---------------------|----------------------|
B |---------------------|----------------------|
G |--9--9--9-9----------|--9--9--9-9----9-5----|
D |--9--9--9-9--7-------|--9--9--9-9-----------|
A |--7--7--7-7--7-------|--7--7--7-7--7--------|
E |-------------5--8-7-7|-------------------7-7|


Chorus (play twice each time the chorus comes)

E |---------------|----------------|--------------|--------------|
B |---------------|----------------|--------------|--------------|
G |-7---7--7-7-X-X|--5---5--5-5-X-X|--2---2--2-2-2|--2---2--2-2-5|
D |-7---7--7-7-X-X|--5---5--5-5-X-X|--2---2--2-2-2|--2---2--2-2-5|
A |-5---5--5-5-X-X|--3---3--3-3-X-X|--0---0--0-0-3|--0---0--0-0-3|
E |---------------|----------------|--------------|--------------|

End of Song

Play the intro for the end of the song.


Song Pattern

Intro
1st Verse
Chorus
2nd Verse
Chorus
3rd Verse
End Riff
Tap to rate this tab
 
# A B C D E F G H I J K L M N O P Q R S T U V W X Y Z