Song name
# A B C D E F G H I J K L M N O P Q R S T U V W X Y Z

Michael Husiak - Not Quite Flawless tab

Not Quite Flawless
Michael Husiak


h= hammer on


Intro and Verses (play twice for verses)

E |------0-------------0-------|
B |-------------0-------------0|
G |----------------------------|
D |----3------3------0------3--|
A |--2------0------2------0----|
E |----------------------------|

Chorus (play four times)

E |------------|---------|------------|---------------|
B |------------|---------|------------|---------------|
G |------------|---------|--3--3-3-3-3|--3--3--3-3-3-3|
D |------------|---------|--3--3-3-3-3|--3--2--2-2-2-2|
A |--2--2-2-2-2|--2-2-2-2|--1--1-1-1-1|--1------------|
E |--0--0-0-0-3|--0-0-0-3|------------|---------------|

End of Song

E |------------|---------|------------|---------------|
B |------------|---------|------------|---------------|
G |------------|---------|--3--3-3-3-3|--3--3--3-3-3-3|
D |------------|---------|--3--3-3-3-3|--3--2--2-2-2-2|
A |--2--2-2-2-2|--2-2-2-2|--1--1-1-1-1|--1------------|
E |--0--0-0-0-3|--0-0-0-3|------------|---------------|

E |------------|---------|------------|---------------|
B |------------|---------|------------|---------------|
G |------------|---------|--3--3-3-3-3|--3--3--3-3-3-3|
D |------------|---------|--3--3-3-3-3|--3--2--2-2-2-2|
A |--2--2-2-2-2|--2-2-2-2|--1--1-1-1-1|--1------------|
E |--0--0-0-0-3|--0-0-0-3|------------|---------------|

E |------------|---------|------------|---------------|
B |------------|---------|------------|---------------|
G |------------|---------|--3--3-3-3-3|--3--3--3-3-3-3|
D |------------|---------|--3--3-3-3-3|--3--2--2-2-2-2|
A |--2--2-2-2-2|--2-2-2-2|--1--1-1-1-1|--1------------|
E |--0--0-0-0-3|--0-0-0-3|------------|---------------|

E |------------|---------|---------------|
B |------------|---------|---------------|
G |------------|---------|---------------| HOLD LAST
D |------------|---------|---------------|   NOTE
A |--2--2-2-2-2|--2-2-2-2|--2-0-2-0-2-0-2|
E |--0--0-0-0-3|--0-0-0-3|--3-2-3-2-3-2-0|




Intro

It was that night that it came to me
There was a fight.
They went down

First Verse

You and I are so deprived
I'm suprised that we survived.
Enter.

Chorus

Fallin' down to were you belong
Fallin' far it has been so long
You don't seem to satisfied
You're goin' down and will soon be gone

Second Verse

Life flashes by before your eyes
Why'd you tell all of those lies
Before you're gone?
Tap to rate this tab
 
# A B C D E F G H I J K L M N O P Q R S T U V W X Y Z