Song name
# A B C D E F G H I J K L M N O P Q R S T U V W X Y Z

Michael Jackson - Beat It tab

B-Bend       AH-Artificial Harmonic    h-harmonic
Po-Pull off  T-Finger tap
Ho-Hammer on  /-slide up  \-slide down v-vibrato/quick bending


e|--------------------------Ho14(Pull off to 10)--Ho15(" " " 10)-Ho14--Ho15--|
B|---------------------------------------------------------------------------|
G|-b3(5)--7(T14)--8(T14)---------------------------------------------------|
D|---------------------------------------------------------------------------|
A|---------------------------------------------------------------------------|
E|---------------------------------------------------------------------------|

e|--Po15--Po14--Po12--10--Ho14--Ho15--Po15--Po14--Po12-10-(x2 Ho14-10)-------|
B|---------------------------------------------------------------------------|
G|---------------------------------------------------------------------------|
D|---------------------------------------------------------------------------|
A|---------------------------------------------------------------------------|
E|---------------------------------------------------------------------------|

e|---------------------------------------------------------------------------|
B|--Ho14--Po14--10--Ho15--Po15--12--Ho14--Ho15--Po15--Po14--Po12--10-x2------|
G|---------------------------------------------------------------------------|
D|---------------------------------------------------------------------------|
A|---------------------------------------------------------------------------|
E|---------------------------------------------------------------------------|

e|------------------------------12--19--15--12-----12--------------------12--|
B|-12--13--12----12--19--15--19-----------------19-----19--15--12--12--15----|
G|---------------------------------------------------------------------------|
D|---------------------------------------------------------------------------|
A|---------------------------------------------------------------------------|
E|---------------------------------------------------------------------------|


e|-----------------12-------------12-----------------------------------------|
B|--19--15--12--15-----19--15--12----12--------------b15(17)--12--t15/------|
G|---------------------------------------b14(16)--12-------------------------|
D|---------------------------------------------------------------------------|
A|---------------------------------------------------------------------------|
E|---------------------------------------------------------------------------|

e|---------------------------------------------------------------------------|
B|-------------------------------------------3/5--3--5--3--5(Po's & Ho's)----|
G|--B14(15)--12---B9(11)--7--Po9--7--Po9--7----------------------------------|
D|---------------------------------------------------------------------------|
A|---------------------------------------------------------------------------|
E|---------------------------------------------------------------------------|


e|----------------12-----------12-----12--b15(17)--12------------------------|
B|--------------------b15(17)------12-----------------12---------------------|
G|--b+h3(5)--3/13----------------------------------------12--b14(16)-12-v14--|
D|---------------------------------------------------------------------------|
A|---------------------------------------------------------------------------|
E|---------------------------------------------------------------------------|

e|-------------------------------------t15-Pull off to 12 " " " 8------------|
B|--T14-Then pull off to 13-" " " " 8------------------------------x3 but----|
G|---------------------------------------------------------------------------|
D|---------------------------------------------------------------------------|
A|---------------------------------------------------------------------------|
E|---------------------------------------------------------------------------|

e|--------------------------------t15 pulling off to 9---12------------------|
B|-------------------------------------------------------b15(17)--12-12-12---|
G|-pull off to 12 instead of 13----------------------------------------------|
D|---------------------------------------------------------------------------|
A|---------------------------------------------------------------------------|
E|---------------------------------------------------------------------------|

e|--14-14-14-15-15-15--17-17-17-19-19-19-22-22-22-b22(24-24-24-24)-----------|
B|---------------------------------------------------------------------------|
G|---------------------------------------------------------------------------|
D|---------------------------------------------------------------------------|
A|---------------------------------------------------------------------------|
E|-------------------------------------------------------------------17\0----|

Finishes to the main bit. Please rate so I know how accurate it is and easy to understand. 
Tap to rate this tab
# A B C D E F G H I J K L M N O P Q R S T U V W X Y Z