Song name
# A B C D E F G H I J K L M N O P Q R S T U V W X Y Z

Michael Jackson - Speechless tab

Hey, I hope this tab works out for you!  Enjoy!

Capo 3rd

your love is magical thats how I feel
but I have not the words here to explain
gone is the grace for expressions of passion
But there are worlds and worlds of ways to explain
to tell you how I feel but I am

(Quietly strumming)
G           Em          C                      D
speechless, speechless, that's how you make me feel
G                    Em                C              D
Though I'm with you, I am far away and nothing is for real

When I'm with you I am lost for words, I don't know what to say
|-------------------------------------------------------------|
|--------------0-----------0-----------1-----------3----------|
|-----------0-----0-----0-----0-----0-----0-----2-----2-------|
|--------0-----------2-----------2-----------0----------------|
|-------------------------------------------------------------|
|-------------------------------------------------------------|

My head's spinning like a carousel, so silently I pray
|-------------------------------------------------------------|
|---------------0-----------0-----------1-----------3---------|
|------------0-----0-----0-----0-----0-----0-----2-----2------|
|---------0-----------2-----------2-----------0---------------|
|-------------------------------------------------------------|
|-------------------------------------------------------------|

Helpless, hopless,that's how I feel inside
|-------------------------------------------------------------|
|--------------0-----------0-----------1-----------3----------|
|-----------0-----0-----0-----0-----0-----0-----2-----2-------|
|--------0-----------2-----------2-----------0----------------|
|-------------------------------------------------------------|
|-------------------------------------------------------------|

Nothing's real, but all is possible if god is on my side
|-------------------------------------------------------------|
|--------------0-----------0-----------1-----------3----------|
|-----------0-----0-----0-----0-----0-----0-----2-----2-------|
|--------0-----------2-----------2-----------0----------------|
|-------------------------------------------------------------|
|-------------------------------------------------------------|

When I'm with you I am in the light where I cannot be found
|-------------------------------------------------------------|
|--------------0-----------0-----------1-----------3----------|
|-----------0-----0-----0-----0-----0-----0-----2-----2-------|
|--------0-----------2-----------2-----------0----------------|
|-------------------------------------------------------------|
|-------------------------------------------------------------|

It's as though I am standing in the place called hollowed ground
|-------------------------------------------------------------|
|--------------0-----------0-----------1-----------3----------|
|-----------0-----0-----0-----0-----0-----0-----2-----2-------|
|--------0-----------2-----------2-----------0----------------|
|-------------------------------------------------------------|
|-------------------------------------------------------------|

G           C                  Em              D
speechless, speechless, that's how you make me feel
           G             C            Em             D
Though I'm with you I am far away and nothing is for real
        G               C        Em                 D
I'll go anywhere and do anything just to touch your face 
            G                      C
there is no mountain high I cannot climb
    Em              D
I'm humbled in your grace

G           C                  Em              D
speechless, speechless, that's how you make me feel
           G             C              Em             D
Though I'm with you I am lost for words and nothing is for real
G           C                  Em              D
speechless, speechless, that's how you make me feel
           G             C              Em             D
Though I'm with you I am lost for words and nothing is for real
G           C                  Em              D
speechless, speechless, that's how you make me feel
           G             C              Em             D
Though I'm with you I am lost for words and nothing is for real
G
Speechless

Yor love is magical, that's how I feel
but in your presence I am lost for words
words like I love you
Tap to rate this tab
# A B C D E F G H I J K L M N O P Q R S T U V W X Y Z