Song name
# A B C D E F G H I J K L M N O P Q R S T U V W X Y Z

Michael Jackson - Billie Jean tab

original recording with a capo on 2nd fret (optional)



e|----------------------------------------------------------------|
B|----------------------------------------------------------------|
G|----------------------------------------------------------------|
D|------0-2-0-------------0-2-0---------------0-2-0---------------|
A|----2-------2-0-2-----2-------2-0-2-------2-------2-0-2---------|
E|--0-----------------0------------------0------------------------|

e|-0---------2--------3--------2-------0-------2-------3--------2-|
B|-0---------2--------4--------2-------0-------2-------4--------2-|
G|-0---------2--------4--------2-------0-------2-------4--------2-|
D|----------------------------------------------------------------|
A|----------------------------------------------------------------|
E|----------------------------------------------------------------|
Tap to rate this tab
 
# A B C D E F G H I J K L M N O P Q R S T U V W X Y Z