Song name
# A B C D E F G H I J K L M N O P Q R S T U V W X Y Z

Michael Jackson - This Is It tab

Verse 1:
e|-------------------------------------------------------------------|
B|-------3-----------4--------------3--------------------------4-----|
G|-------3-----------3--------------3--------------------------3-----|
D|-------3-----------3--------------3--------------------------3-----|
A|-------------------------------------------------------------------|
E|-------------------------------------------------------------------|

This is it, Here I stand, I'm the light of the world, I feel grand
Got this love I can feel,   And I know yes for sure,    it is real

Verse 2:
e|-------------------------------------------------------------------|
B|-------6----------------------------------------------3------------|
G|-------6----------------------------------------------3------------|
D|-------6----------------------------------------------3------------|
A|-------------------------------------------------------------------|
E|-------------------------------------------------------------------|

And it feels as though I've seen your face a thousand times
And you said you really know me too yourself
And I know that you have got addicted with your eyes
But you say you gonna live it for yourself

--

This is my first tab!  I love Michael!
This is what I have so far.  The next part changes chords a bit, but I haven't figured 
out yet and the rest of the song pretty much just repeats this.  I will post more later!
Tap to rate this tab
# A B C D E F G H I J K L M N O P Q R S T U V W X Y Z