Song name
# A B C D E F G H I J K L M N O P Q R S T U V W X Y Z

Michael Jackson - They Dont Care About Us tab

=============================================================================
Artist: Michael Jackson
Album: HIStory
Year: 1995
-----------------------------------------------------------------------------
Tabbed By: Eric "Nimcompoop" Whittle
Tuning: Standard
=============================================================================
This is the song's whole guitar part. 
Throughout most of the song, there's 
a beat (created by synth/percussion 
I guess), but near the tail-end of 
the song, a fairly simple, yet cool 
and effective, guitar section is 
placed. 



Guitar 1
e|---------------------------------------------------------| Repeat 10x
B|---------------------------------------------------------|
G|------------------9p10-7-5-7--9p10-7-5-------------------|
D|---------------------------------------------------------|
A|---------------------------------------------------------|
E|---------------------------------------------------------|

Guitar 2
e|------------------------------------------------| Repeat 9x
B|------------------------------------------------|
G|-----------------0-2----------------------------|
D|------0-3-0-3-0-------0-3-0-3-0-----------------|
A|---------------------------------3-5------------|
E|------------------------------------------------|

Later...

Both Guitars
e|--------------------------------------------| Repeat 9x
B|--------------------------------------------|
G|-------------------9-9-7--9-9-7-------------|
D|-------------------7-7-5--7-7-5-------------|
A|--------------------------------------------|
E|--------------------------------------------|



| p  pull-off
Tap to rate this tab
 
# A B C D E F G H I J K L M N O P Q R S T U V W X Y Z