Song name
# A B C D E F G H I J K L M N O P Q R S T U V W X Y Z

Michael Jackson - This Is It tab

Verse 1:
e|-------------------------------------------------------------------|
B|--3-3-3-3-3-3-3-3-----4-4-4-4-4-4-4-4-----3-3-3-3-3-3-3-3----------|
G|--3-3-3-3-3-3-3-3-----3-3-3-3-3-3-3-3-----3-3-3-3-3-3-3-3----------|
D|--3-3-3-3-3-3-3-3-----3-3-3-3-3-3-3-3-----3-3-3-3-3-3-3-3----------|
A|-------------------------------------------------------------------|
E|-------------------------------------------------------------------|

e|-------------------------------------------------------------------|
B|--4-4-4-4-4-4-4-4--------------------------------------------------|
G|--3-3-3-3-3-3-3-3--------------------------------------------------|
D|--3-3-3-3-3-3-3-3--------------------------------------------------|
A|-------------------------------------------------------------------|
E|-------------------------------------------------------------------|

This is it, here I stand, Iím the light of the world, I feel grand
Got this love I can feel, And I know yes for sure it is real

Verse 2:
e|-------------------------------------------------------------------|
B|--9-9-9-9-9-9-9-9-----3-3-3-3-3-3-3-3-----9-9-9-9-9-9-9-9----------|
G|--8-8-8-8-8-8-8-8-----3-3-3-3-3-3-3-3-----8-8-8-8-8-8-8-8----------|
D|--8-8-8-8-8-8-8-8-----3-3-3-3-3-3-3-3-----8-8-8-8-8-8-8-8----------|
A|-------------------------------------------------------------------|
E|-------------------------------------------------------------------|

e|-------------------------------------------------------------------|
B|--3-3-3-3-3-3-3-3--------------------------------------------------|
G|--3-3-3-3-3-3-3-3--------------------------------------------------|
D|--3-3-3-3-3-3-3-3--------------------------------------------------|
A|-------------------------------------------------------------------|
E|-------------------------------------------------------------------|
And it feels as though Iíve seen your face a thousand times
And you said you really know me too yourself
And I know that you have got addicted with your eyes
But you say youíre gonna live it for yourself.

Verse 3:
e|-------------------------------------------------------------------|
B|--8-8-8-8-8-8-8-8-----10-10-10-10-10-10-10-10----------------------|
G|--8-8-8-8-8ó8-8-8-----10-10-10-10-10-10-10-10----------------------|
D|--7-7-7-7-7-7-7-7------9--9--9--9--9--9--9--9----------------------|
A|-------------------------------------------------------------------|
E|-------------------------------------------------------------------|

e|-------------------------------------------------------------------|
B|--8-8-8-8-8-8-8-8-----10-10-10-10-10-10-10-10----------------------|
G|--8-8-8-8-8ó8-8-8-----10-10-10-10-10-10-10-10----------------------|
D|--7-7-7-7-7-7-7-7------9--9--9--9--9--9--9--9----------------------|
A|-------------------------------------------------------------------|
E|-------------------------------------------------------------------|
I never heard a single word about you, Falling in love wasnít my plan
I never thought that I would be your lover, Címon baby, just understand
Tap to rate this tab
 
# A B C D E F G H I J K L M N O P Q R S T U V W X Y Z